» » »

Song #1 Tabs (ver.1)

Artists:  A B C D E F G H I J K L M N O P Q R S T U V W X Y Z # 

Song #1 Tabs (ver.1)

Unsigned
Rating:
0/5 (0 votes)

Hard to play? Try these video lessons and learn fast.
                              This song was written only by Blake Sandlin.

E--------------------------------------------------------
B--------------------------------------------------------
G--------------------------------------------------------   With Distortion we use a 
D-xxx--xx---xxx--xx--------------------------------------   Boss DS-1 Pedal For this.
A-xxx--xx---xxx--xx--------------------------------------   
E-xxx--xx---xxx--xx--------------------------------------        
E-3-3-3-33--3---2-2-2-22--2---1-1-1-11--1
B-3-3-3-33--3---2-2-2-22--2---1-1-1-11--1
G-3-3-3-33--3---2-2-2-22--2---1-1-1-11--1    Clean No Distortion at all     
D-3-3-3-33--3---2-2-2-22--2---1-1-1-11--1
A-3-3-3-33--3---2-2-2-22--2---1-1-1-11--1         
E-3-3-3-33--3---2-2-2-22--2---1-1-1-11--1

E-3-3-3-33--3---2-2-2-22--2---1-1-1-11--1
B-3-3-3-33--3---2-2-2-22--2---1-1-1-11--1
G-3-3-3-33--3---2-2-2-22--2---1-1-1-11--1    With Distortion Using Boss DS-1 pedal
D-3-3-3-33--3---2-2-2-22--2---1-1-1-11--1
A-3-3-3-33--3---2-2-2-22--2---1-1-1-11--1     
E-3-3-3-33--3---2-2-2-22--2---1-1-1-11--1
            
Hard to play? Try these video lessons and learn fast. | Correct




comments powered by Disqus
↑ Back to top | Tablatures and chords are parodies/interpretations of the original songs. You may use it for private study, scholarship, research or language learning purposes only