» » »

Something Bass tabs (ver.1)

Artists:  A B C D E F G H I J K L M N O P Q R S T U V W X Y Z # 

Something Bass tabs (ver.1)

Unsigned
Rating:
0/5 (0 votes)

Hard to play? Try these video lessons and learn fast.
                I came up with this somehow. Probably was influenced by a band and I have no idea...happens all the time.

E-----000----3--1--0--5--6--0--6--4--0--6--3--
A---------------------------------------------
D---------------------------------------------
G--------------------------------------------- x4

E----0----7h8--8-----------
A-----------------9--6-----
D--------------------------
G-------------------------- x3

E---55-6-0---5--33---2---
A----------3-------2-----
D------------------------
G------------------------

have fun ken!
            
Hard to play? Try these video lessons and learn fast. | Correct




comments powered by Disqus
↑ Back to top | Tablatures and chords are parodies/interpretations of the original songs. You may use it for private study, scholarship, research or language learning purposes only