» » »

Unsigned, Something Bass tabs (ver.2)

Artists:  A B C D E F G H I J K L M N O P Q R S T U V W X Y Z # 

Something Bass tabs (ver.2)

Unsigned Tabs
 Rating:
4/5 (4 votes)
Something lessons Tabs too difficult? Try these video lessons and learn fast
1
                
STANDARD TUNING [EADG] -- ( * = Let Ring )
                          ( / = Slide Up ) 
                          ( \ = Slide Down )
Riff 1 
G: -------------------------
D: ---------0*--------------
A: -----2-4---4-2-----------
E: -0-4-----------4--------- x2

Riff 2 
G: ---------0*--------------
D: -----2-4---4-2-----------
A: -0-4-----------4---------
E: ------------------------- x2

Riff 1 
G: -------------------------
D: ---------0*--------------
A: -----2-4---4-2-----------
E: -0-4-----------4--------- x2

Riff 3
G: ---------1/12--12/1-0----
D: -------------------------
A: -------------------------
E: -0*----------------------
            
Submit corrections

comments powered by Disqus
↑ Back to top | Unsigned Bass for Something. Lyrics for acoustic guitar and electric guitar. 1 Tablatures and chords are parodies/interpretations of the original songs. You may use it for private study, scholarship, research or language learning purposes only