» » »

Unsigned, Soliliquoil Bass tabs (ver.1)

Artists:  A B C D E F G H I J K L M N O P Q R S T U V W X Y Z # 

Soliliquoil Bass tabs (ver.1)

Unsigned Tabs
 Rating:
4/5 (4 votes)
Soliliquoil lessons Tabs too difficult? Try these video lessons and learn fast
1
                Bassist: Me!

O.k, this song is by my band, i wrote the whole song, and its pretyy easy to play.
I doubt any of you have ever heard my band, but heres the tab anyway!
~=Let note ring for 4 beats

Intro (bass only)

G:---------------------------:
D:-----------6---------------:
A:-5-7----4---2-8------1---0-:
E:------1---2--0---4-2---6---:

Verse:

G:----------------------------:
D:----------------------------:
A:----------------1~----0~----:
E:-1~-0----6----2-------------:

Pre-chorus:

G:-0--------------------------:
D:----------------5-----------:
A:----4------------------6----:
E:---0---1----4------7------2-:

Chorus:

G:----------------------------:
D:----------------------------:
A:-------------------0-----3--:
E:--0--3-1-0~-----3-----4----6:

Bridge:

G:-----------------------------:
D:--5-5-5-5-5-5-5-5-5-5-5-5-5--:
A:-3-3-3-3-3-3-3-3-3-3-3-3-3-3-:
E:-----------------------------:

Outro:

G:-----------------------------:
D:-----------------------------:
A:-----------------------------:
E:-0~--1~--0~--1~--0~--1~--0~--:

Song structure:

Intro x1
Verse x3
Pre-chorus x 1
Chorus x2
Verse x3
Bridge x1
Chorus x6
Pre-chorus x 3
Chorus x4
Outro x1

Peace out
            
Submit corrections

comments powered by Disqus
↑ Back to top | Unsigned Bass for Soliliquoil. Lyrics for acoustic guitar and electric guitar. 1 Tablatures and chords are parodies/interpretations of the original songs. You may use it for private study, scholarship, research or language learning purposes only