» » »

Sock Puppet Frontiers- Chocolate Tabs (ver.1)

Artists:  A B C D E F G H I J K L M N O P Q R S T U V W X Y Z # 

Sock Puppet Frontiers- Chocolate Tabs (ver.1)

Unsigned
Rating:
0/5 (0 votes)

Hard to play? Try these video lessons and learn fast.
                Main Riff:
E|--------------------------------------------
B|--------------------------------------------
G|--------------------------------------------
D|--2-2-3-2--2-2-2-3-2------2-2-3-2--2-2-2-3-2
A|--2-2-3-2--2-2-2-3-2------2-2-3-2--2-2-2-3-2
E|--2-2-3-2--2-2-2-3-2------2-2-3-2--2-2-2-3-2

E|---------------------------------------------
B|---------------------------------------------
G|---------------------------------------------
D|--2-2-3-2--2-2-2-3-2-------2-2-3-2--2-2-2-3-2
A|--2-2-3-2--2-2-2-3-2-------2-2-3-2--2-2-2-3-2
E|--2-2-3-2--2-2-2-3-2-------2-2-3-2--2-2-2-3-2

Outro:
E|-------------------------------------------
B|-------------------------------------------
G|-------------------------------------------
D|--7-7--5-5--3-3--1-1-----7-7--5-5--3-3--1-1
A|--7-7--5-5--3-3--1-1-----7-7--5-5--3-3--1-1
E|--7-7--5-5--3-3--1-1-----7-7--5-5--3-3--1-1

E|-------------------------------------------
B|-------------------------------------------
G|-------------------------------------------
D|--7-7--5-5--3-3--1-1-----7-7--5-5--3-3--1-1
A|--7-7--5-5--3-3--1-1-----7-7--5-5--3-3--1-1
E|--7-7--5-5--3-3--1-1-----7-7--5-5--3-3--1-1

Peace.
            
Hard to play? Try these video lessons and learn fast. | Correct




comments powered by Disqus
↑ Back to top | Tablatures and chords are parodies/interpretations of the original songs. You may use it for private study, scholarship, research or language learning purposes only