>
 >
Smd - Messed Up

Smd - Messed Up Bass Tabs

Unsigned - Smd - Messed Up chords, tabs, tablatures, lyrics

Guitar lessons | Add/correct | Request | Top 50 tabs Artists:  A B C D E F G H I J K L M N O P Q R S T U V W X Y Z 0-9

Smd - Messed Up Bass Tabs – Unsigned

CD, Sheet music, Poster

Do you like Smd - Messed Up? Share with your friends now
Bass Tabs
Intro
G----------------------------------------
D----------------------------------------
A-19\7-7-7---4-4-4h6---------------------
E-------7--7----7----4/5--55-5-77-99--77-

G-------------------------------------------------------
D-------------------------------------------------------
A-7-7-7---4-4-4h6-----------------------------------97~-
E----7--7----7----4/5555555555555555-77777777777777-----

First Verse
G-----------------------11---11---11---11---11------14----14----14~-
D---------------------11---11---11---11---11--11--14----14----14----
A----------22222222-9----9----9----9----9-------12----12----12------
E-00000000----------------------------------------------------------

Chorus
G-------------------------------------
D-------------------------------------
A-7-7-7---4-4-4h6---------------------
E----7--7----7----4/5--55-5-77-99--77-

G-----------------------------------------------------
D-----------------------------------------------------
A-7-7-7---4-4-4h6-----------------------------------9-
E----7--7----7----4/5555555555555555-77777777777777---

Second Verse
G----------------------------------
D----------------------------------
A-7-77-77-2-22-22---------0-0-42-0-
E-----------------2-22-22----------

G-------------------------------------
D-------------------------------------
A----------22222222----------000-42-0-
E-00000000----------22222222----------

G-----------------------11----11----11----11----11------14----14----/16-
D---------------------11----11----11----11----11--11--14----14----14/16-
A----------22222222-9-----9-----9-----9-----9-------12----12----12--/14-
E-00000000--------------------------------------------------------------

Chorus 2 (same as Intro)

Interlude
G------------------------------------------------
D----7h9p7------9h11p9------7h9p7------9h11p9----
A-7----------9-----------7----------9---------5~-
E------------------------------------------------

G---9------9--11------11---9------9--11----------
D----7h9p7------9h11p9------7h9p7------9h11p976--
A-7----------9-----------7----------9----------9-
E------------------------------------------------

G---9------9--11------11-----------------------------------
D----7h9p7------9h11p9------------------6-777777777777-999-
A-7----------9-----------99999999999999--------------------
E----------------------------------------------------------

Solo
G-----------------------------------------
D-----------------------------------------
A--------47--------67--------47-----------
E------55--------77--------55--------7-7\-

G----------------------------------------
D--------------7h999~--------------------
A------0000-999------------0000-999920---
E-0000----------------0000------------42-

G---------------------------------11----11----11----11----11------14----14----/16-16-16-16\-
D------7-7-----7h999~-----777---11----11----11----11----11--11--14----14----14/16-16-16-16\-
A-7-7-------999-------7-7-----9-----9-----9-----9-----9-------12----12----12--/14-14-14-14\-
E-------------------------------------------------------------------------------------------

Chorus 3
G----------------------------------------
D----------------------------------------
A-7-7-7---4-4-4h6--------------9-7-6-----
E----7--7----7----4/5--55-5-77-------7-5-

G-----------------------------------------------------
D-----------------------------------------------------
A-7-7-7---4-4-4h6-------------------------------------
E----7--7----7----4/5555555555555555-777777777--7/15\-

Chorus 4
G----------------------------------------
D------------------------------9-7-6~----
A-7-7-7---4-4-4h6---------------------9~-
E----7--7----7----4/5--55-5-77-----------

G-----------------------------------------------------------
D---9-9-------6-6---------------------------99999-----------
A-7--7--7--4-4-4---------------------222222/------9-7~------
E-----------------4/5555555555555555---------------------0~-





Comments


Popular Unsigned tabs & chords
Darker Than Ink - Nothing Bass Tabs
Notu - Just Those Things Bass Tabs
Scope - Hurting Me Bass Tabs
Stereo Ad 1 Bass Tabs
Ten Seconds To Go - The Blvd. Bass Tabs
Addicted To Nothing - Alone Tabs
Barcode- The Plant Tabs
Dekapitron - Shapes Of Pain Tabs
Delayed Reaction - The Maria Song Tabs
Drywater-Cratephone Tabs


Song lyrics



↑ Back to top | Tablatures and chords are parodies/interpretations of the original songs. You may use it for private study, scholarship, research or language learning purposes only
© 2014 AZChords.com Contact us | Privacy policy | DMCA | Add/correct tabs | Request tabs | Top 50 tabs