» » »

Unsigned, Smd - Cheesecake Bass tabs (ver.1)

Artists:  A B C D E F G H I J K L M N O P Q R S T U V W X Y Z # 

Smd - Cheesecake Bass tabs (ver.1)

Unsigned Tabs
 Rating:
4/5 (4 votes)
Smd - Cheesecake lessons Tabs too difficult? Try these video lessons and learn fast
                Intro
G-----
D-----
A-----
E-6h8-

G-------------------------------
D------------------10-10-121212-
A-------7-8-7-------8--8-101010-
E-88-10-------10-8--------------

Verse 1&2
G-------------------------------
D------------------10-10-121212-
A-------7-8-7-------8--8-101010-
E-88-10-------10-8--------------

Interlude
G-----------------------------------
D--------10-101010-12--12-12-101010-
A-10--10--8--8-8-8-10--10-10--8-8-8-
E--8---8---------------------------- x2

Verse 2
G---------------------------------
D--------------------10------12---
A-------7-8-7------88--8/1010--10-
E-88-10-------10-8----------------

Chorus 1
G-----------------------------------
D--------10-101010-12--12-12-101010-
A-10--10--8--8-8-8-10--10-10--8-8-8-
E--8---8---------------------------- x2

G-12--12----------------------------
D-10--10-10-101010-12--12-12-101010-
A---------8--8-8-8-10--10-10--8-8-8-
E----------------------------------- x2

Bass Solo
G-------------------------
D--10--10-10---10----10---
A------------8---8/10--10-
E-8--8---8---------------- x2

G----------------------------
D--10--10---7-10-7---12-9h10-
A-----7--7/8-------10--------
E-8--8-----------------------

G----------------------------
D--10--10---7-10-7-----------
A-----7--7/8-------10-8-7----
E-8--8--------------------10-

G------------------
D------------------
A-1010101010101010-
E--8-8-8-8-8-8-8-8- x4

Solo
G-12-1212-1212--------------12-12-12/14\12-10-12--------------
D-10-1010-1010-10-10-121212-10-10----------------10-10-121212-
A---------------8--8-101010-----------------------8--8-101010-
E-------------------------------------------------------------

G-12-1212-1212--------------12-12-12-10-9----------------------
D-10-1010-1010-10-10-121212-10-10-10------12-10---10------12---
A---------------8--8-101010---------------------88--8-1010--10-
E--------------------------------------------------------------

Verse 3
G-------------10------9---
D-------10----------------
A---7-------88--8-1010-10-
E-88-888--8--------------- x2

G---------------------------------
D--------------------10------12---
A-------7-8-7------88--8/1010--10-
E-88-10-------10-8---------------- (for rest)

Chorus 2
G-----------------------------------
D--------10-101010-12--12-12-101010-
A-10--10--8--8-8-8-10--10-10--8-8-8-
E--8---8---------------------------- x4

G--------------------------
D---------------12-----10--
A---7-87----1010--10-88--8-
E-88-8--108----------------

End on 
G----
D-10-
A-10-
E--8-

All Chorus's played with distortion
            
Submit corrections

comments powered by Disqus
↑ Back to top | Unsigned Bass for Smd - Cheesecake. Lyrics for acoustic guitar and electric guitar. Tablatures and chords are parodies/interpretations of the original songs. You may use it for private study, scholarship, research or language learning purposes only