» » »

Unsigned, Smcg - The Dighe March Bass tabs (ver.1)

Artists:  A B C D E F G H I J K L M N O P Q R S T U V W X Y Z # 

Smcg - The Dighe March Bass tabs (ver.1)

Unsigned Tabs
Rating:
0/5 (0 votes)
Smcg - The Dighe March lessons Tabs too difficult? Try these video lessons and learn fast
                00000000000THE DIGHE MARCH00000000000000000000000

This is a song that i wrote about a fat boy at our school. There
are no lyrics but it's a pretty cool short song.

Intro
-----
G---------------------------------------------------
D---------------------------------------------------
A--3---3---3---33-02----X4--------------------------
E----3---3---3---3----------------------------------

guitar plays CGCGCGCG progression through entire song

main riff
---------
G---------------------------------------------------
D----2-------2------2-------------------------------
A--3----02-3------3-----023-------X4----------------
E------3-------3------3-----------------------------

then play intro riff x2 and finish on fret 3, A string

guitar chords
-------------
e-----  e-----
B-----  B-----
G--5--  G-----
D--5--  D--5--
A--3--  A--5--
E-----  E--3--
   C       G

AND THAT'S THE SONG!
BYEEEEE
Noff
----
            

comments powered by Disqus
↑ Back to top | Unsigned Bass for Smcg - The Dighe March. Lyrics for acoustic guitar and electric guitar. Tablatures and chords are parodies/interpretations of the original songs. You may use it for private study, scholarship, research or language learning purposes only