» » »

Sk8punkers - Jam Bass tabs (ver.1)

Artists:  A B C D E F G H I J K L M N O P Q R S T U V W X Y Z # 

Sk8punkers - Jam Bass tabs (ver.1)

Unsigned
Rating:
0/5 (0 votes)

Hard to play? Try these video lessons and learn fast.
                G-------------------------------
D-------------------------------
A-0--0-2--1-0-0-2--1-0-0--------  2Xs
E------------------------2--1-0-

G--------------------------------------------------------2-1-0
D-0--0-2--1-0-0-2--1-0-0----------0--0-2--1-0-0-2--1-0-0------
A------------------------2--1-0-------------------------------
E-------------------------------------------------------------

I am still workin on this tab so check back for updates.  This is my first tab hope you like it.  Oh and be sure to play this one slow.  It sounds better that way.
            
Hard to play? Try these video lessons and learn fast. | Correct




comments powered by Disqus
↑ Back to top | Tablatures and chords are parodies/interpretations of the original songs. You may use it for private study, scholarship, research or language learning purposes only