» » »

Sixdaystoyesterday - Thermalvalentine Bass tabs (ver.1)

Artists:  A B C D E F G H I J K L M N O P Q R S T U V W X Y Z # 

Sixdaystoyesterday - Thermalvalentine Bass tabs (ver.1)

Unsigned
Rating:
0/5 (0 votes)

Tabs too difficult? Try these video lessons and learn fast.
                SixDaysToYesterday
Learn The Words Tell More People (EP)
ThermalValentine
Bassist-Paul Pichon
Song - ThermalValentine

Intro
G-------------------------
D-------------------------
A--0>--3>--5>----8p7--3---
D-------------------------



G-------5-----------3------------1-----------------
D-----7---7-5-----5---5--3-----3---3-1-------------
A--55----------33-----------11----------00-3-5-3-0-
D--------------------------------------------------

G--------------------------------------------------
D----------------(32)------------------------------
A-00--33--55--11-/87-3-----------------------------
D--------------------------------------------------

G--------------------------------------------------
D--------------------------------------------------
A--------------------------------------------------
D--70777070777070707/10----------------------------
         this is a ten not one and zero
G--------------------------------------------------
D--------32-----32---------------------------------
A--0--3----3--5---3--------------------------------
D--------------------------------------------------
you will have to listen to get timing but it is easy

this song is really fun to play esspecially live because its kinda simple so i can go crazy with it...if you
just want to mess around with it go ahead but if you want me to email you the song (i have a splitter) then
i will send it to you fo free on the copy i would send i don't play becasue i just rejoined the band but i will
give you the new copy when i rerecord it...so have fun with this please and questions or comments or anyhing at all
Paul Pichon
            
Tabs too difficult? Try these video lessons and learn fast.




comments powered by Disqus
↑ Back to top | Tablatures and chords are parodies/interpretations of the original songs. You may use it for private study, scholarship, research or language learning purposes only