» » »

Unsigned, Silent Rage - Peace Killer Tabs (ver.1)

Artists:  A B C D E F G H I J K L M N O P Q R S T U V W X Y Z # 

Silent Rage - Peace Killer Tabs (ver.1)

Unsigned Tabs
 Rating:
4/5 (4 votes)
Silent Rage - Peace Killer lessons Tabs too difficult? Try these video lessons and learn fast
                Sandard Tuning- E  B  G  D  A  E
Intro:
E-------------------------------------        E--------------------------------------
B-------------------------------------        B--------------------------------------
G-------------------------------------        G--------------------------------------
D-22--44--55-x-55-x-55-x--------------                                                         D-22--22--33-x-33-x-33-x---------------
A-22--44--55-x-55-x-55-x--------------        A-22--22--33-x-33-x-33-x---------------             
E-00--44--55-x-55-x-55-x-------- Repeat 2x    E-00--22--33-x-33-x-33-x-----Repeat 2x


Repeat Intro 2x then :---
E------------------------------------------------------------------------------------
B------------------------------------------------------------------------------------
G------------------------------------------------------------------------------------
D-1--1--1-1-1---4-4---3--3--3-3-3---2-2------1--1--1-1-1---4-4-4---3--3--3-3-3---4-4-
A-1--1--1-1-1---4-4---3--3--3-3-3---2-2------1--1--1-1-1---4-4-4---3--3--3-3-3---4-2-
E-1--1--1-1-1---4-4---3--3--3-3-3---2-2------1--1--1-1-1---4-4-4---3--3--3-3-3---2-2- Repeat 2x

Next :---
E------------------------------------------------------------------------------------
B------------------------------------------------------------------------------------
G-4--4-4-4-----------4--4-4-4-----------4--4-4-4-----------4--4-4-4------------------
D-4--4-4-4---4-4-4---4--4-4-4---6-6-6---4--4-4-4---4-4-4---4--4-4-4---5-5-5----------
A-2--2-2-2---4-4-4---2--2-2-2---6-6-6---2--2-2-2---4-4-4---2--2-2-2---5-5-5----------
E------------2-2-2--------------4-4-4--------------2-2-2--------------3-3-3----------
Repeat 2x Then:---

E--------------------------------------------
B--------------------------------------------
G-4--4-4-4-4---------------------------------
D-4--4-4-4-4--2-2---4--4-4-4-4---4-4---------
A-2--2-2-2-2--2-2---4--4-4-4-4---4-4---------
E-------------0-0---4--4-4-4-4---5-5---------

E----------------------------------------------
B----------------------------------------------
G----------------------------------------------
D----------------------------------------------
A-2--2-2-2-2---2-2---4--4-4-4-4--4-4-----------
E-0--0-0-0-0---2-2---4--4-4-4-4--5-5---- Repeat 3x
 E------------------------------------------------------------------------------------
B------------------------------------------------------------------------------------
G------------------------------------------------------------------------------------
D---------------------------------------------------------(let ring out for 3sec)----
A-2--2-2-2-2---2-2---4--4-4-4-4--4-4---4-4--4-4--4-4--4-4--4--4-4---4----444444444444444444444444-
E-0--0-0-0-0---2-2---4--4-4-4-4--5-5---5-5--5-5--5-5--5-5--5--5-5---4----444444444444444444444444-

This is only the short version of this song. Im 12 years old and this is my first tab. Rate it whatever you like but if it really is good for an ameteur pleze give it a 5 star! Thankx lots and hope you like it. Full version will be tabbed soon. HAVE FUN! * * * * *
            
Submit corrections

comments powered by Disqus
↑ Back to top | Unsigned Tabs for Silent Rage - Peace Killer. Lyrics for acoustic guitar and electric guitar. Tablatures and chords are parodies/interpretations of the original songs. You may use it for private study, scholarship, research or language learning purposes only