» » »

Unsigned, Sick Tabs (ver.3)

Artists:  A B C D E F G H I J K L M N O P Q R S T U V W X Y Z # 

Sick Tabs (ver.3)

Unsigned Tabs
Rating:
0/5 (0 votes)
Sick lessons Tabs too difficult? Try these video lessons and learn fast
                Sick SeReNaDe  -  My World


E------------------------------------------------
B------------------------------------------------
G------------------------------------------------
D----5-----5-----3-----5-----8-----8-----8---
A----5-----5-----3-----5-----8-----8-----8---
E----3-----3-----3-----3-----6-----6-----6---

8x

Strophe (abgedämpft)

E------------------------------------------------------------------------------------
B------------------------------------------------------------------------------------
G------------------------------------------------------------------------------------
D----5-5-5-5-5-5-5-5-5-5-5-5-5-5-5-5-8-8-8-8-8-8-8-8-8-8-8-8-8-8-8-8-
A----5-5-5-5-5-5-5-5-5-5-5-5-5-5-5-5-8-8-8-8-8-8-8-8-8-8-8-8-8-8-8-8-
E----3-3-3-3-3-3-3-3-3-3-3-3-3-3-3-3-6-6-6-6-6-6-6-6-6-6-6-6-6-6-6-6-


E--------------------------------------------------------------------------------------------------
B--------------------------------------------------------------------------------------------------
G--------------------------------------------------------------------------------------------------
D----5-5-5-5-5-5-5-5-5-5-5-5-5-5-5-5-8-8-8-8-8-8-8-8-10-10-10-10-10-10-10-10---
A----5-5-5-5-5-5-5-5-5-5-5-5-5-5-5-5-8-8-8-8-8-8-8-8-10-10-10-10-10-10-10-10---
E----3-3-3-3-3-3-3-3-3-3-3-3-3-3-3-3-6-6-6-6-6-6-6-6--8---8---8--8---8--8---8--8---


E------------------------------------------------
B------------------------------------------------
G------------------------------------------------
D----5-----5-----3-----5-----8-----8-----8---
A----5-----5-----3-----5-----8-----8-----8---
E----3-----3-----3-----3-----6-----6-----6---

4x

Refrain

E--------------------------------------------------------------------------------------------
B--------------------------------------------------------------------------------------------
G------------------------------------------------5-5-5-5-5-5-5-5-------------------------
D----7-7-7-7-7-7-7-7—3-3-3-3-3-3-3-3---5-5-5-5-5-5-5-5---5-5-5-5-5-5-5-5---
A----7-7-7-7-7-7-7-7—3-3-3-3-3-3-3-3---3-3-3-3-3-3-3-3---5-5-5-5-5-5-5-5---
E----5-5-5-5-5-5-5-5—1-1-1-1-1-1-1-1-------------------------3-3-3-3-3-3-3-3---

2x


E------------------------------------------------
B------------------------------------------------
G------------------------------------------------
D----5-----5-----3-----5-----8-----8-----8---
A----5-----5-----3-----5-----8-----8-----8---
E----3-----3-----3-----3-----6-----6-----6---


4x

Strophe 2x

Refrain 4x

E------------------------------------------------
B------------------------------------------------
G------------------------------------------------
D----5-----5-----3-----5-----8-----8-----8---
A----5-----5-----3-----5-----8-----8-----8---
E----3-----3-----3-----3-----6-----6-----6---
            

comments powered by Disqus
↑ Back to top | Unsigned Tabs for Sick. Lyrics for acoustic guitar and electric guitar. Tablatures and chords are parodies/interpretations of the original songs. You may use it for private study, scholarship, research or language learning purposes only