» » »

Sherwood Grove - Greylance Bass tabs (ver.1)

Artists:  A B C D E F G H I J K L M N O P Q R S T U V W X Y Z # 

Sherwood Grove - Greylance Bass tabs (ver.1)

Unsigned
Rating:
0/5 (0 votes)

Hard to play? Try these video lessons and learn fast.
                This is right because, well, I did write it anyway!

Track - Track 02 - GreyLancer
Album - 'New Forest' by Sherwood Grove

Intro (x4)-

G  ---------------------------------------------------------------------------------------
D  ---------------------------------------------------------------------------------------
A  --0--0--0--0--0--0--0--0--5--5--5--5--5--5--5--5--3--3--3--3--3--3--3--3---------------
E  ---------------------------------------------------------------------------------------

G  -------------------------------I
D  -------------------------------I
A  -------------------------------I
E  --3--3--3--3--2--2--2--2-------I 

First Verse (x4)

G  -----------------------------------------------------------------------------------------
D  -----------------------------------------------------------------------------------------
A  --0--0--0--0--0--0--0--0--5--5--5--5--5--5--5--5--3--3--3--3--3--3--3--3--3--------------
E  -----------------------------------------------------------------------------------------

G  --------------------------------I
D  --------------------------------I
A  --------------------------------I
E  ---3--3--3--3--3--3--3--3-------I

Chorus (x4) :      "Dreamin Of Home_______________________________"

G  -----------------------------------------------------------------------------------------
D  -----------------------------------------------------------------------------------------
A  ---0--0-0--0--0-0---0--0---3--3--3-3-3-3-3-3----5-5-5-5-5-5-5-5-8-8-8-8-8----------------
E  -----------------------------------------------------------------------------------------

G  -------------I
D  -------------I
A  ---8-8-8-----I
E  -------------I

Repeat Verse One (x4)
Repeat Chorus (x4)
Repeat Verse One (x4)

Any Questions, just email the onedodgeegeeza @
            
Hard to play? Try these video lessons and learn fast. | Correct




comments powered by Disqus
↑ Back to top | Tablatures and chords are parodies/interpretations of the original songs. You may use it for private study, scholarship, research or language learning purposes only