» » »

Unsigned, Scope - Townies Suck Donkey Balls Bass tabs (ver.1)

Artists:  A B C D E F G H I J K L M N O P Q R S T U V W X Y Z # 

Scope - Townies Suck Donkey Balls Bass tabs (ver.1)

Unsigned Tabs
Rating:
0/5 (0 votes)
Hard to play? Try these video lessons and learn fast.
                Band - Scope
Song - Townies Suck DSonkey Balls

Intro & Chorus
G---------------------------------------------------
D---------------------------------------------------
A------------------5-5-5-5--------------------------
E--5-5-5-5-3-3-3-3---------5-5-5-5-3-3-3-3-0-0-0-0--

Verse
G-----------------------------------
D-----------------------------------
A----------7-7-7-7------------------
E--7-7-7-7---------7-7-7-7-0-0-5-5--

Bridge
G-----------------------
D-----------------------
A--------5--------------
E--2-2-2---5-5-5-5-0-0--
            

comments powered by Disqus
↑ Back to top | Unsigned Bass for Scope - Townies Suck Donkey Balls. Lyrics for acoustic guitar and electric guitar. Tablatures and chords are parodies/interpretations of the original songs. You may use it for private study, scholarship, research or language learning purposes only