» » »

Unsigned, Schebereeo - Airbuz-Z Bass tabs (ver.1)

Artists:  A B C D E F G H I J K L M N O P Q R S T U V W X Y Z # 

Schebereeo - Airbuz-Z Bass tabs (ver.1)

Unsigned Tabs
Rating:
0/5 (0 votes)
Schebereeo - Airbuz-Z lessons Tabs too difficult? Try these video lessons and learn fast
                tuning: standard:  E,A,D,G


Enjoi this tab from schebereeo!!

EN UN VIAJE POR COLOMBIA...
G|---------------------------------------------------------|   
D|---------------------------------------------------------|
A|--------0--0-0---2-22/4---4-44---------------------------|  X5
E|2--2-2---------------------------------------------------|

G|---------------------------------------------------------|
D|---------------------------------------------------------|
A|---------------------------------------------------------|  X2
E|2--2-2-2-22--2-2---5-4-----------------------------------|

AIRBUZ-Z, AIRBUZ-Z....

G|---------------------------------------------------------|
D|---------------------------------------------------------|
A|---------------------------------------------------------|
E|5-555--4-44-4--------------------------------------------|

repetat those models for all the song
            

comments powered by Disqus
↑ Back to top | Unsigned Bass for Schebereeo - Airbuz-Z. Lyrics for acoustic guitar and electric guitar. Tablatures and chords are parodies/interpretations of the original songs. You may use it for private study, scholarship, research or language learning purposes only