» » »

Ryan Conners - Ghost Town Tabs (ver.1)

Artists:  A B C D E F G H I J K L M N O P Q R S T U V W X Y Z # 

Ryan Conners - Ghost Town Tabs (ver.1)

Unsigned
Rating:
0/5 (0 votes)

Hard to play? Try these video lessons and learn fast.
                Song-"GhostTown"
Written and performed by Ryan Connors
Recorded on his 8-track machine in Indiana

Acoustic Guitar \ Standard Tuning

Verse
     (G)    (Em)      (C)      (G)
e|--3-3-3---------------------3-3-3--|
b|--0-0-0-----------1-1-1-1---0-0-0--|
g|--0-0-0---0-0-0---0-0-0-0---0-0-0--|
d|--0-0-0---2-2-2---2-2-2-2---0-0-0--|
a|--2-2-2---2-2-2---3-3-3-3---2-2-2--|
E|--3-3-3---0-0-0-------------3-3-3--|


Chorus

      (Em)         (D)         (G)
e|--------------2-2-2-2-2---3-3-3-3-3--|
b|--0-0-0-0-0---3-3-3-3-3---0-0-0-0-0--|
g|--2-2-2-2-2---2-2-2-2-2---0-0-0-0-0--|
d|--2-2-2-2-2---------------0-0-0-0-0--|
a|--0-0-0-0-0---------------2-2-2-2-2--|
E|--------------------------3-3-3-3-3--|
            
Hard to play? Try these video lessons and learn fast. | Correct




comments powered by Disqus
↑ Back to top | Tablatures and chords are parodies/interpretations of the original songs. You may use it for private study, scholarship, research or language learning purposes only