» » »

Unsigned, Ruckus Next Door - #2 Bass tabs (ver.1)

Artists:  A B C D E F G H I J K L M N O P Q R S T U V W X Y Z # 

Ruckus Next Door - #2 Bass tabs (ver.1)

Unsigned Tabs
 Rating:
4/5 (4 votes)
Ruckus Next Door - #2 lessons Tabs too difficult? Try these video lessons and learn fast
                intro
g 15-14--13-12--11-10--9-8-7-6-5-4-3-2-1-
d -----14-----12-----10---8---6---4---2-1
a ---------------------------------------
e ---------------------------------------

g ------3-5---------
d 3-4-2----5-7---5-7
a ------------7-5---   x2
e ------------------
verse1
g -----------------------------------
d -------------------222-333---------
a ----3333-4444-2222---------44/9--77
e 3333-------------------------------

g ------------------------------
d ---------------------2222-3333
a 4444-3333------22222----------       x3
e ----------3333----------------
chorus
g --------------
d --------------
a --------------   x6
e 55-33-22-11-00
verse2 (x2)
g -------------------------
d ------------22-33--------
a ---33-44-22-------44/9-77
e 33-----------------------

g -----------------
d ------------22-33
a 44-33----22------
e ------33---------
before end chorus
g ------------------------------
d ---------------------2222-3333
a 4444-3333------22222----------       x2
e ----------3333----------------
 chorus
g --------------------------------------------
d --------------------------------------------
a --------------------------------------------       x2
e 55-33-55-33-22-55-33-22-11-55-33-22-11-00-55

g --------------
d --------------
a --------------   x2
e 55-33-22-11-00 
the end
            
Submit corrections

comments powered by Disqus
↑ Back to top | Unsigned Bass for Ruckus Next Door - #2. Lyrics for acoustic guitar and electric guitar. Tablatures and chords are parodies/interpretations of the original songs. You may use it for private study, scholarship, research or language learning purposes only