» » »

Unsigned, Rift- Splintered Tears Bass tabs (ver.1)

Artists:  A B C D E F G H I J K L M N O P Q R S T U V W X Y Z # 

Rift- Splintered Tears Bass tabs (ver.1)

Unsigned Tabs
 Rating:
4/5 (4 votes)
Rift- Splintered Tears lessons Tabs too difficult? Try these video lessons and learn fast
1
                my band broke up so im putting all of my tabs on the net, enjoy





intro

G|----------------------------|
D|----------------------------|
A|----------------------------|
D|--0~-------3~------5~---2~--|

intro extention
 
G|------------------------------------------------------------------|
D|------------------------------------------------------------------|
A|--6--6-6--6--6-6--4--4-4--4--4-4--1--1-1--1--1-1--1--1-1--2--2--2-|
D|------------------------------------------------------------------| 

G|--------------------------------------|
D|--------------------------------------|
A|--------------------------------------|
D|--0--0-0--3--5--3--0--0-0--2--3--2----| X2

G|------------------------------------------|
D|------------------------------------------|
A|--6--6-6--6--6-6--9-9-9-9-9-9-9-9-9-9-9-9-|
D|------------------------------------------|

verse

G|------------------|-----------------|-----------------|----------------------------------|
D|------------------|-----------------|-----------------|----------------------------------|
A|------------------|-----------------|-----------------|------------10-10-10-9-9-99-8-7---|
D|--0~--5~--7~--3-2~|-0~--5~--3~--5-3~|-0~--5~--7~--3-2~|-7~--9~--12-----------------------|

chorus

G|------------------------------------------------------------------|
D|------------------------------------------------------------------|
A|--6--6-6--6--6-6--4--4-4--4--4-4--1--1-1--1--1-1--1--1-1--2--2--2-|
D|------------------------------------------------------------------| 

G|--------------------------------------|
D|--------------------------------------|
A|--------------------------------------|
D|--0--0-0--3--5--3--0--0-0--2--3--2----| X2 

G|------------------------------------------------------------------|
D|------------------------------------------------------------------|
A|--6--6-6--6--6-6--4--4-4--4--4-4--1--1-1--1--1-1--1--1-1--2--2--2-|
D|------------------------------------------------------------------|

G|--------------------------------------|
D|--------------------------------------|
A|--------------------------------------|
D|--0--0-0--3--5--3--0--0-0--2--3--2----| X2 

G|------------------------------------------|
D|------------------------------------------|
A|--6--6-6--6--6-6--9-9-9-9-9-9-9-9-9-9-9-9-|
D|------------------------------------------|

verse

G|------------------|-----------------|-----------------|----------------------------------|
D|------------------|-----------------|-----------------|----------------------------------|
A|------------------|-----------------|-----------------|------------10-10-10-9-9-99-8-7---|
D|--0~--5~--7~--3-2~|-0~--5~--3~--5-3~|-0~--5~--7~--3-2~|-7~--9~--12-----------------------|


chorus

G|------------------------------------------------------------------|
D|------------------------------------------------------------------|
A|--6--6-6--6--6-6--4--4-4--4--4-4--1--1-1--1--1-1--1--1-1--2--2--2-|
D|------------------------------------------------------------------| 

G|--------------------------------------|
D|--------------------------------------|
A|--------------------------------------|
D|--0--0-0--3--5--3--0--0-0--2--3--2----| X2 

G|------------------------------------------------------------------|
D|------------------------------------------------------------------|
A|--6--6-6--6--6-6--4--4-4--4--4-4--1--1-1--1--1-1--1--1-1--2--2--2-|
D|------------------------------------------------------------------|

G|--------------------------------------|
D|--------------------------------------|
A|--------------------------------------|
D|--0--0-0--3--5--3--0--0-0--2--3--2----| X2 

G|-----------------------------------|
D|-----------------------------------|
A|--6--6-6--6--6-6--9-9-9-9-9-9-9-9--|
D|-----------------------------------|

G|--------------------------------------|
D|--------------------------------------|
A|--------------------------------------|
D|--0--0-0--3--5--3--0--0-0--2--3--2----| X2 

intermision

G|-----------------------------------------------|
D|-----------------------------------------------|
A|--0-0-0-5-7--8-8-8-10-8--3-3-3-5-3--2-2-2h3p0--|
D|-----------------------------------------------| X4

G|-----------------------------------------------|
D|-----------------------------------------------|
A|-----------------------------------------------|
D|--0-0-0-5-7--8-8-8-10-8--3-3-3-5-3--2-2-2h3p0--| X4

verse

G|------------------|-----------------|-----------------|----------------------------------|
D|------------------|-----------------|-----------------|----------------------------------|
A|------------------|-----------------|-----------------|------------10-10-10-9-9-99-8-7---|
D|--0~--5~--7~--3-2~|-0~--5~--3~--5-3~|-0~--5~--7~--3-2~|-7~--9~--12-----------------------|


verse variation

G|-----------------------------------------------------------------|
D|-----------------------------------------------------------------|
A|-----------------------------------------------------------------|
D|-0-0-0-0-0-0-0-0-5-5-5-5-5-5-5-5-7-7-7-7-7-7-7-7-3-3-3-3-2-2-2-2-|

G|-----------------------------------------------------------------|
D|-----------------------------------------------------------------|
A|-----------------------------------------------------------------|
D|-0-0-0-0-0-0-0-0-5-5-5-5-5-5-5-5-3-3-3-3-3-3-3-3-5-5-5-5-3-3-3-3-|

G|-----------------------------------------------------------------|
D|-----------------------------------------------------------------|
A|-----------------------------------------------------------------|
D|-0-0-0-0-0-0-0-0-5-5-5-5-5-5-5-5-7-7-7-7-7-7-7-7-3-3-3-3-2-2-2-2-|

G|---------------------------------------------------------------------|
D|---------------------------------------------------------------------|
A|---------------------------------7-7-7-7-7-7-7-7-10-10-10-9-9-99-8-7-|
D|-7-7-7-7-7-7-7-7-9-9-9-9-9-9-9-9-------------------------------------|

chorus 

G|------------------------------------------------------------------|
D|------------------------------------------------------------------|
A|--6--6-6--6--6-6--4--4-4--4--4-4--1--1-1--1--1-1--1--1-1--2--2--2-|
D|------------------------------------------------------------------| 

G|--------------------------------------|
D|--------------------------------------|
A|--------------------------------------|
D|--0--0-0--3--5--3--0--0-0--2--3--2----| X2 

G|------------------------------------------------------------------|
D|------------------------------------------------------------------|
A|--6--6-6--6--6-6--4--4-4--4--4-4--1--1-1--1--1-1--1--1-1--2--2--2-|
D|------------------------------------------------------------------|

G|--------------------------------------|
D|--------------------------------------|
A|--------------------------------------|
D|--0--0-0--3--5--3--0--0-0--2--3--2----| X2 

G|-----------------------------------|
D|-----------------------------------|
A|--6--6-6--6--6-6--9-9-9-9-9-9-9-9--|
D|-----------------------------------|

chorus variation

G|--------------------------------------------------|
D|--------------------------------------------------|
A|--6-6-6-6-6-6-4-4-4-4-4-4-1-1-1-1-1-1-1-1-1-2-2-2-|
D|--------------------------------------------------|

G|--------------------------------------|
D|--------------------------------------|
A|--------------------------------------|
D|--0--0-0--3--5--3--0--0-0--2--3--2----| X2 

G|--------------------------------------------------|
D|--------------------------------------------------|
A|--6-6-6-6-6-6-7-7-7-7-7-7-9-9-9-9-9-9-9-9-9-9-9-9-|
D|--------------------------------------------------|

G|--------------------------------------|
D|--------------------------------------|
A|--------------------------------------|
D|--0--0-0--3--5--3--0--0-0--2--3--2----| X2 

G|-----------------------------------|
D|-----------------------------------|
A|--6--6-6--6--6-6--9-9-9-9-9-9-9-9--|
D|-----------------------------------|

outro

G|----------------------------|
D|----------------------------|
A|----------------------------|
D|--0--------3-------5----2---|
            
Submit corrections

comments powered by Disqus
↑ Back to top | Unsigned Bass for Rift- Splintered Tears. Lyrics for acoustic guitar and electric guitar. 1 Tablatures and chords are parodies/interpretations of the original songs. You may use it for private study, scholarship, research or language learning purposes only