» » »

Unsigned, Rift- Left Bass tabs (ver.1)

Artists:  A B C D E F G H I J K L M N O P Q R S T U V W X Y Z # 

Rift- Left Bass tabs (ver.1)

Unsigned Tabs
Rating:
0/5 (0 votes)
Rift- Left lessons Tabs too difficult? Try these video lessons and learn fast
                my band broke up so im putting all of my tabs on the net, enjoy




intro1

G|--------------------|
D|----------2~~~------|
A|--3~~~--------------|
E|------3~~~----1~~~--|

intro2 X2

G|-----2-5-3-2-----2-5-3-2-----2-5-3-2----2-5-3-2--|
D|--------------------------2----------------------|
A|--3----------------------------------------------|
E|--------------3-----------------------1----------|

verse 

G|-----------------------------------------------------------------| X3
D|---------------------------------2---2---2-2-2-------------------|
A|--3---3---3-3-3--------------------------------------------------|
E|------------------3---3---3-3-3-----------------1---1---1-1-1----|

G|--------------------------------------------------------|
D|---------------------------------2---2---2-2-2----------|
A|--3---3---3-3-3-----------------------------------------|
E|------------------3---3---3-3-3------------------1/4----|
						(slide as singing goes higher)

chorus X4

G|----------------------------------------------------------------------------------------|
D|-------------------2h3-------------------2h3--2--2-2---2--2-2--2h3------------------2h3-|
A|--3--3-3---3--3-3-----------------------------------------------------------------------|
E|------------------------3--3-3---3--3-3-----------------------------1--1-1---1--1-1-----|

verse 

chorus X4

bridge X2

G|-----------------------------------------------------------------|
D|-------------------------2-2-22----------------------------------|
A|--3-3-33---------------------------------------------------------|
E|--------------3-3-33------------------1--1--1-1--1-1--1-1--1-1-1-|

verse X3

intro2 X2

intro1 X1 (but only the first 3 notes)

chorus till the end (end on E|--3-|)
            
Submit corrections

comments powered by Disqus
↑ Back to top | Unsigned Bass for Rift- Left. Lyrics for acoustic guitar and electric guitar. Tablatures and chords are parodies/interpretations of the original songs. You may use it for private study, scholarship, research or language learning purposes only