» » »

Unsigned, Rift- Down The Bunny Hole Bass tabs (ver.1)

Artists:  A B C D E F G H I J K L M N O P Q R S T U V W X Y Z # 

Rift- Down The Bunny Hole Bass tabs (ver.1)

Unsigned Tabs
 Rating:
4/5 (4 votes)
Rift- Down The Bunny Hole lessons Tabs too difficult? Try these video lessons and learn fast
1
                my band broke up so im posting all of my tabs onto the net, enjoy



(standard)

this is the whole song orderd, there is too many different parts to call then chorus or verse and what not

G|------------------------------------------------|
D|------------------------------------------------|
A|--------------------------------------3~~~~-----|
E|--3/5--0--rest--3/5--0--rest--3/5--0------------|

G|-----------------------------------------------------------------------------|
D|-----------------------------------------------------------------------------|
A|-------------------------------------------------------------------3~~~~-----|
E|---3/5--0--x-x--x-x--x-x--x-x--3/5--0--x-x--x-x--x-x--x-x--3/5--0------------|

G|--------------------------------|
D|--------------------------------|
A|--------1h3---------------------|
E|--0-3-3------0h3--0h3--0h3h5----| X3

G|------------------|
D|------------------|
A|--------1h3-------|
E|--0-3-3------0h3~~|

G|---------------------------------------------------------------------------------|
D|---------------------------------------------------------------------------------|
A|---------------------------------------------------------------------------------|
E|--0-0-3-5--0-00-3-2--0-0-3-5--0-00-6-5-----0-0-3-5--0-00-3-2--0-0-3-5--0-00-6-5--|

G|--------------------------------------|
D|--------------------------------------|
A|------------------------2-4--3-3/2\10-|
E|--0-0-3-5--0-0-5-7--0-0---------------|

G|--------------------------------------------------------------------------------------|
D|-------------------5----5--------7----7----------------------3----3--------5----5-----|
A|--------------------------------------------------------------------------------------|
E|-0-0-0-3-3-3--3-33---33---3-5-55---55---5--0-0-0-3-3-3--1-11---11---1-3-33---33---3---| X2
   spspsps s s				     spspsps s s 

G|--8-8-8-8-8-8-8-8-7-7-7-7-7-7-7-7/12-12-12-12-12-12-12-12-----------------------|
D|--6-6-6-6-6-6-6-6-5-5-5-5-5-5-5-5/10-10-10-10-10-10-10-10-10-10-10-10-9-9-9-9---|
A|-----------------------------------------------------------8--8--8--8-7-7-7-7---|
E|--------------------------------------------------------------------------------| X2

G|---------------------------------------------------------------------------------|
D|---------------------------------------------------------------------------------|
A|---------------------------------------------------------------------------------|
E|--0-0-3-5--0-00-3-2--0-0-3-5--0-00-6-5----0-0-3-5--0-00-3-2--0-0-3-5--0-00-6-5---| 

G|---------------------------------------|
D|----------------------------------10\5-|
A|-----------------------------5/10------|
E|--0-0-3-5--0-0-5-7--0-0-7-9------------|

G|---------------------------------------------------------------------------------|
D|---------------------------------------------------------------------------------|
A|---------------------------------------------------------------------------------|
E|--0-0-3-5--0-00-3-2--0-0-3-5--0-00-6-5----0-0-3-5--0-00-3-2--0-0-3-5--0-00-6-5---| 

G|--------------------------------------|
D|--------------------------------------|
A|-----------------------------3-3/2\10-|
E|--0-0-3-5--0-0-3-5--0-0-5-7-----------|

G|------------------|--------------------|-------------------------------------------|
D|------------------|--------------------|-------------------------------------------|
A|------------------|--------------------|-------------------------------------------|
E|-0~-rest--0--3--0~|~~rest-0-0-0-0-3--0~|~~x-x--x---x-x--x---x-x--x---x-x--0--3--0~~|

G|----------------------------------------------------------------------|
D|----------------------------------------------------------------------|
A|----------------------------------------------------------------------|
E|~x-x-x--x-x--x---x-x-x--x-x--x---x-x-x--x-x--x---x-x-x--x-x--0--3--0--|

G|--------------------------------------|
D|--------------------------5-----------|
A|------5h7-----5h7-----5h7---7-5/4h7---|
E|--0-0-----3-3-----5-5-----------------| X4 

G|---------------------------------------------------------------------------------|
D|---------------------------------------------------------------------------------|
A|---------------------------------------------------------------------------------|
E|--0-0-3-5--0-00-3-2--0-0-3-5--0-00-6-5----0-0-3-5--0-00-2-1--0-0-3-5--0-00-6-5---| 

G|---------------------------------------|
D|----------------------------------10\5-|
A|-----------------------------5/10------|
E|--0-0-3-5--0-0-5-7--0-0-7-9------------|

G|---------------------------------------------------------------------------------|
D|---------------------------------------------------------------------------------|
A|---------------------------------------------------------------------------------|
E|--0-0-3-5--0-00-3-2--0-0-3-5--0-00-6-5----0-0-3-5--0-00-2-1--0-0-3-5--0-00-6-5---| 

G|--------------------------------------|
D|--------------------------------------|
A|-----------------------------3-3/2\10-|
E|--0-0-3-5--0-0-3-5--0-0-5-7-----------|

G|--------------------------------------------------------------------------------------|
D|-------------------5----5--------7----7----------------------3----3--------5----5-----|
A|--------------------------------------------------------------------------------------|
E|-0-0-0-3-3-3--3-33---33---3-5-55---55---5--0-0-0-3-3-3--1-11---11---1-3-33---33---3---| X2
   spspsps s s				     spspsps s s 

G|-----------------------------------------------------------------|
D|-----------------------------------------------------------------|
A|--4---4--4-4-4--3---3--3-3-3--8---8--8-8-8-----------------------|
E|--------------------------------------------6-6-6-4-4-4-7-4------| X2

G|--------------------------------------------------------------------|
D|--------------------------------------------------------------------|
A|-----------------------------------------------------------3-3/2\10-|
E|--0--3--0--3--0--3--0--3--5--5--0-0-3-5--0-0-5-7--0-2-3-5-----------| X2
    s  s  s  s  s  s  s  s  s  s

G|-------------------------------------------|
D|-------------------------------------------|
A|----7-9-----7-5-----2-4--------------------|
E|--7-----7-5-----5-0-----0--0-0-0-2-4-2-3-2-| 

G|-------------------------------------------|
D|-------------------------------------------|
A|----7-9-----7-5-----2-4--------------------|
E|--7-----7-5-----5-0-----0--0-0-0-2-3-2-4-2-| 

G|-------------------------------------------|
D|-------------------------------------------|
A|----7-9-----7-5-----2-4--------------------|
E|--7-----7-5-----5-0-----0--0-0-0-2-4-2-3-2-| 

G|--------------------------------------------------------------------------|
D|--------------------------------------------------------------------------|
A|--------------------------------------------------------------------------|
E|--9-9-9-9-9-9-9-9-7-7-7-7-7-7-7-7-12-12-12-12-12-12-12-12-0-0-3-2-3-2-3-2-| 

G|---------------------------------|
D|---------------------------------|
A|---------------------------------|
E|-0~~~~~~~~~~~~-------------------|
   come with me DOWN THE BUNNY HOLE

G|---------------------|
D|---------------------|
A|---------------------|
E|--7-7-7-0-0-0-2-3----| X4

end with

G|-----9--|
D|-----x--|
A|-----7--|
E|--0~~---|


KEY
s= slap
p= pause
            
Submit corrections

comments powered by Disqus
↑ Back to top | Unsigned Bass for Rift- Down The Bunny Hole. Lyrics for acoustic guitar and electric guitar. 1 Tablatures and chords are parodies/interpretations of the original songs. You may use it for private study, scholarship, research or language learning purposes only