» » »

Unsigned, Residential Atrocity - Atrostic Tabs (ver.1)

Artists:  A B C D E F G H I J K L M N O P Q R S T U V W X Y Z # 

Residential Atrocity - Atrostic Tabs (ver.1)

Unsigned Tabs
 Rating:
4/5 (4 votes)
Residential Atrocity - Atrostic lessons Tabs too difficult? Try these video lessons and learn fast
1
                Crank it!	

	Riff 1
1|-----------------------------------------
2|-----------------------------------------
3|-----------------------------------------
4|---------7-7-7-7-8-8-8-8---------5-5-5-5- (all palm muted)
5|-5-5-5-5-5-5-5-5-6-6-6-6-8-8-8-8-3-3-3-3-
6|-3-3-3-3-----------------6-6-6-6---------



	Riff 2
1|-----------------------------------------
2|-----------------------------------------
3|-----------------------------------------
4|---------7-7-7-7-8-8-8-8---------5-5-5-5- NOT P.M.
5|-5-5-5-5-5-5-5-5-6-6-6-6-8-8-8-8-3-3-3-3-
6|-3-3-3-3-----------------6-6-6-6---------



	Riff 3
1|----------------------------------
2|----------------------------------
3|----------------------------------
4|-----------------8-8-8-8-10101010-
5|-3-3-3-3-5-5-5-5-6-6-6-6-8-8-8-8--
6|-1-1-1-1-3-3-3-3------------------



	Riff 4
1|----------------------------------
2|----------------------------------
3|----------------------------------
4|---------8-8-8-8--------101011010-
5|-3-3-3-3-6-6-6-6-5-5-5-5-8-8-8-8--
6|-1-1-1-1---------3-3-3-3----------



	Solo
1|---------------------
2|---------------------
3|---------------------
4|---------------------
5|-----3-5-6-------5-3-
6|-3-5-------6-5-3-----



	Riff 5

1|-----------------------------------------------------------
2|-----------------------------------------------------------
3|-----------------------------------------------------------
4|---------7-7-7-7-8-8-8-8---------5-5-5-5-------------------
5|-5-5-5-5-5-5-5-5-6-6-6-6-8-8-8-8-3-3-3-3-3-3-3-3-5*------5-
6|-3-3-3-3-----------------6-6-6-6---------1-1-1-1-3*------3-




Order:
1,1,2,2,3,3,2,2,4,4,3,3,2,2,SOLO,SOLO,2,5
thanx
            
Submit corrections

comments powered by Disqus
↑ Back to top | Unsigned Tabs for Residential Atrocity - Atrostic. Lyrics for acoustic guitar and electric guitar. 1 Tablatures and chords are parodies/interpretations of the original songs. You may use it for private study, scholarship, research or language learning purposes only