» » »

Random Identity - Problems In Life Tabs (ver.1)

Artists:  A B C D E F G H I J K L M N O P Q R S T U V W X Y Z # 

Random Identity - Problems In Life Tabs (ver.1)

Unsigned
Rating:
0/5 (0 votes)

Tabs too difficult? Try these video lessons and learn fast.
                Intro:

D|-----------------------------------------|
A|-----------------------------------------|
F|-----------------------------------------|
C|-0-0-3-0-5-0-7-0-8-0-7-0-5-0-3-0---------|
G|-0-0-3-0-5-0-7-0-8-0-7-0-5-0-3-0---------|
C|-0-0-3-0-5-0-7-0-8-0-7-0-5-0-3-0---------|

Verse:(palm mute the 0’s)
D|----------------------------------------------------------------|
A|----------------------------------------------------------------|
F|--7-7-10-7-7---7-7-10-7-7---7-7-10-7-7------7-7-10-7-7----------|
C|--x-x--x-x-x---x-x-x-x-x----x-x-x-x-x-------x-x-x-x-x-----------|
G|--5-5--8-5-5---5-5-8-5-5----5-5-8-5-5-------5-5-8-5-5-----------|
C|-------------0------------0------------0---------------0--------|

PreChorus:

D|--------------------------------------------------------|
A|--------------------------------------------------------|
F|--7-7-10--10-12-12-10-10---------------7-7-7-7-7-7-7-7--|
C|--x-x-x---x-x-x—x—x--x-x---x3----------x-x-x-x-x-x-x-x--|
G|--5-5-8---8--10-10--8--8---------------5-5-5-5-5-5-5-5--|
C|--------------------------------------------------------|


Chorus:

D|-------------------------------------------------------------------------|
A|-------------------------------------------------------------------------|
F|-10-10-10-10-10-10-12-12-12-12-12-12-14-14-14-14-14-14-15-15-15-15-15-15-|
C|-x-x-x-x-x-x-x-x-x-x-x-x-x-x-x-x-x-x-x-x-x-x-x-x-x-x-x-x-x-x-x-x-x--x--x-|
G|-8-8-8-8-8-8-10-10-10-10-10-10-12-12-12-12-12-12-13-13-13-13-13-13—13-13-|
C|-------------------------------------------------------------------------|




Solo:

D|--13----15-----17----18-------------|
A|-----13----15-----17----18----------|

Solo: (CNT’D)

D|-13--------13-------13----15-------15--------15----17--------17-------17----18-------18---------18----|
A|----13-13-----13-13----13----15-15----15-15-----15----17-17-----17-17----17----18-18-----18-18-----18-|

Solo: (CNT’D)

D|---------13-------------------15----------------------17--------------------18---------------|
A|--13-13----13-----------15-15----15-------------17-17----17-----------18-18-----18-----------|
F|---------------14h15p14---------------15h17p15--------------17h19p17---------------19h21p19--|

Solo: (CNT’D)

D|--13-----15------17---------------------|
A|------13-----15-----17------------------|
F|-----------------------19-17-15~~~------|

Interlude:

D|-13~~~~~~~---15~~~~~~~~~~~---18~~~~~~~~~~~~~---17~~~~~~~----|

Order:

Intro x4 (First 2 times palm muted)
Verse x2
Pre Chorus x2
Chorus x2
Intro x2
Verse x2
Pre chorus x2
Chorus x2
Introx2
Solo
Interlude
Chorus x2
Intro x2
            
Tabs too difficult? Try these video lessons and learn fast.




comments powered by Disqus
↑ Back to top | Tablatures and chords are parodies/interpretations of the original songs. You may use it for private study, scholarship, research or language learning purposes only