» » »

Unsigned, R33b0rn - Steps Bass tabs (ver.1)

Artists:  A B C D E F G H I J K L M N O P Q R S T U V W X Y Z # 

R33b0rn - Steps Bass tabs (ver.1)

Unsigned Tabs
Rating:
0/5 (0 votes)
R33b0rn - Steps lessons Tabs too difficult? Try these video lessons and learn fast
                Standart tuning (E A D G)


/ - slide up
h - hammer on
p - pull off


Intro

G|----7/9--12-11-9-----------------------------5/7--7h9p7-| 
D|-----------------10--10/12-10-9-(7)-5--5-5-5------------|
A|--------------------------------------------------------|
E|-0------------------------------------------------------|

G|----7/9--12-11-9------------------------| 
D|-----------------10--10-10--------------|
A|----------------------------7-5--5------|
E|-0----------------------------------7-5-|


Verse

G|---------------------------------------|
D|---------------------------------------|
A|--------0-2-3--3-3----------3/5--5-----|
E|-0--0-0------------5-3--3-3--------7-5-|

G|--------------------------------------------------|
D|------------------------------------2-4-2---------|
A|--------0-2-3--3-3----------3/5-5-5-------5-3-2---|
E|-0--0-0------------5-3--3-3---------------------3-|


Chorus

G|----------------------------------------------------------------|
D|----------------------------------------------------------------|
A|-------------0-2-3--3-3-3-3-----------------3/5--5-5-5--5-5-5/7-|
E|-0--0-0-0--0----------------5-3--3-3-3--3-3---------------------|

G|----------------------------------------------------------------------------------|
D|-------------7-9-10--10-10-10--12-10-9--------------------------------------------|
A|-7--7-7-7--7---------------------------10--10-10-10--12-10-9----------------------|
E|-------------------------------------------------------------10--10-10-10--12-10-9|

G|----------------------------------------------------------------------------------|
D|-------------7-9-10--10-10-10--12-10-9--------------------------------------------|
A|-7--7-7-7--7---------------------------10--10-10-10--10-9-------------------------|
E|----------------------------------------------------------12--10--10-10-10--10-8-7|
            

comments powered by Disqus
↑ Back to top | Unsigned Bass for R33b0rn - Steps. Lyrics for acoustic guitar and electric guitar. Tablatures and chords are parodies/interpretations of the original songs. You may use it for private study, scholarship, research or language learning purposes only