» » »

R33b0rn - Road Of Life Bass tabs (ver.1)

Artists:  A B C D E F G H I J K L M N O P Q R S T U V W X Y Z # 

R33b0rn - Road Of Life Bass tabs (ver.1)

Unsigned
Rating:
0/5 (0 votes)

Hard to play? Try these video lessons and learn fast.
                Standart tuning (E A D G)


/ - slide up
s - slap
p - pop


Verse

   s sp s spspp s sp s spsps

G|---------5-55---------------|
D|----7------------5----3-3---|
A|------3-3-3-----------------|
E|-5-5----------3-3--1-1-1-1/-|


Chorus

G|--------------------------------------------------|
D|----------------32-232----------------------------|
A|-0-00-----------------32-0-00----------------532--|
E|-----0-0-0-0-1-1-------------0-0-0-0-1-1-10-0---3-|

G|------------------------------------------------------|
D|----------------32-232--------------------------------|
A|-0-00-----------------32-0-00-7-777-8-887-7-10-7-10-8-|
E|-----0-0-0-0-1-1--------------------------------------|


Bridge

G|-------------------------------------------------|
D|-------------------------------------------------|
A|------3-3------7-5-----2-3------3-3--------------|
E|-5-5-------3-3-----1-1-----5-5-------3-3--1-1-1/-|
            
Hard to play? Try these video lessons and learn fast. | Correct




comments powered by Disqus
↑ Back to top | Tablatures and chords are parodies/interpretations of the original songs. You may use it for private study, scholarship, research or language learning purposes only