» » »

Unsigned, R33b0rn - Falling Bass tabs (ver.1)

Artists:  A B C D E F G H I J K L M N O P Q R S T U V W X Y Z # 

R33b0rn - Falling Bass tabs (ver.1)

Unsigned Tabs
 Rating:
4/5 (4 votes)
R33b0rn - Falling lessons Tabs too difficult? Try these video lessons and learn fast
1
                Drop D (D A D G)

/ - slide up


Verse

G|----------------------------------------------|
D|----------------------------------------------|
A|----------------------5-3-333-3-3-1-1-1-1-1-1-|
D|0-000-0-0-5-3-333-3-3-------------------------|

G|----------------------------------------------|
D|----------------------------------------------|
A|----------------------5-3-333-3-3-1-1-1-1/6-6-|
D|0-000-0-0-5-3-333-3-3-------------------------|


Chorus

G|------------------------------------------3/5-3-|
D|--------------------3-------------------3-------|
A|----------------3-5---5-3-3-3-333-1-1-1---------|
D|0-0-0-000-3-3-3---------------------------------|


Interlude

G|---------------------------|
D|---------------------------|
A|--------------3-3-3--1-1-1-|
D|0-0-0--3-3-3---------------|
            
Submit corrections

comments powered by Disqus
↑ Back to top | Unsigned Bass for R33b0rn - Falling. Lyrics for acoustic guitar and electric guitar. 1 Tablatures and chords are parodies/interpretations of the original songs. You may use it for private study, scholarship, research or language learning purposes only