>
 >
Pyrite - Waiting

Pyrite - Waiting Guitar Tabs

Unsigned - Pyrite - Waiting chords, tabs, tablatures, lyrics

Guitar lessons | Add/correct | Request | Top 50 tabs Artists:  A B C D E F G H I J K L M N O P Q R S T U V W X Y Z 0-9

Pyrite - Waiting Guitar Tabs – Unsigned

CD, Sheet music, Poster

Do you like Pyrite - Waiting? Share with your friends now
Tabs
Verse
X2                                                
e----------------------------------------------------------------------
B----------------------------------------------------------------------
G----------------------------------------------------------------------
D---14----14----14----14------14------14------14----14--14--14---------
A-0-----0---------------------------------14------14--14--14-----------
E-------------0-----0-----14------14-----------------------------------
Chorus                                                                                                                      X2
e----------------------------------------------------------------------
B----------------------------------------------------------------------
G-1414141414141414-----------------------------------------------------
D-1414141414141414-1414141414141414-1616161616161616-1212121212121212--
A-1212121212121212-1414141414141414-1616161616161616-1212121212121212--
E------------------1212121212121212-1414141414141414-1010101010101010--

Pre-verse
e----------------------------------------------------------------------
B----------------------------------------------------------------------
G----------------------------------------------------------------------
D---------14----------14----------14----------14-----------------------
A-----12----------14----------12----------14---------------------------
E-14----------12----------14----------12-------------------------------
Verse
X2                                                
e----------------------------------------------------------------------
B----------------------------------------------------------------------
G----------------------------------------------------------------------
D---14----14----14----14------14------14------14----14--14--14---------
A-0-----0---------------------------------14------14--14--14-----------
E-------------0-----0-----14------14-----------------------------------
Chorus                                                                                                                      
e----------------------------------------------------------------------
B----------------------------------------------------------------------
G-1414141414141414-----------------------------------------------------
D-1414141414141414-1414141414141414-1616161616161616-1212121212121212--
A-1212121212121212-1414141414141414-1616161616161616-1212121212121212--
E------------------1212121212121212-1414141414141414-1010101010101010--
Pre-bridge
e----------------------------------------------------------------------
B----------------------------------------------------------------------
G-1414141414141414-----------------------------------------------------
D-1414141414141414-1414141414141414-16161616-1414-1616-----------------
A-1212121212121212-1414141414141414-16161616-1414-1616-----------------
E------------------1212121212121212-14141414-1212-1414-----------------
Bridge
e----------------------------------------------------------------------
B----------------------------------------------------------------------
G----------------------------------------------------------------------
D---------------------------14--1212----------------10--12--12---------
A-121212--1414------------------------10--10--1212--------------10--10-
E---------------1212--1414---------------------------------------------

e----------------------------------------------------------------------
B----------------------------------------------------------------------
G----------------------------------------------------------------------
D-14--14---------------------------------------------------------------
A---------8-8--12--12------14--14--------------------------------------
E--------------------12--12------10--10--------------------------------
Chorus                                                                                                                      X2
e----------------------------------------------------------------------
B----------------------------------------------------------------------
G-1414141414141414-----------------------------------------------------
D-1414141414141414-1414141414141414-1616161616161616-1212121212121212--
A-1212121212121212-1414141414141414-1616161616161616-1212121212121212--
E------------------1212121212121212-1414141414141414-1010101010101010--
Outro                                          
e----------------------------------------------------------------------
B----------------------------------------------------------------------
G----------------------------------------------------------------------
D---14----14----14----14------14---------------------------------------
A-0-----0--------------------------------------------------------------
E-------------0-----0-----14------14-----------12--12--12--10--10--------------------------------





Comments


Popular Unsigned tabs & chords
Antisocial Anarchist Society - Sarah Bass Tabs
Pop Up - Abuse Bass Tabs
Unarmed - We Are Killing Ourselves Bass Tabs
Brigade 88- South Calibrated Tabs
Catalyst - Hostile Nastalgia Tabs
Dayz Never Done-Shibby Tabs
Deferred-A.C.T.F.F.K.C. Tabs
Dominant Chopsticks- Smile Tabs
Fds - Why Tabs
Forced To Change-Constipation Tabs


Song lyrics



↑ Back to top | Tablatures and chords are parodies/interpretations of the original songs. You may use it for private study, scholarship, research or language learning purposes only
© 2014 AZChords.com Contact us | Privacy policy | DMCA | Add/correct tabs | Request tabs | Top 50 tabs