» » »

Unsigned, Pyrite - Guilt By Association Tabs (ver.1)

Artists:  A B C D E F G H I J K L M N O P Q R S T U V W X Y Z # 

Pyrite - Guilt By Association Tabs (ver.1)

Unsigned Tabs
Rating:
0/5 (0 votes)
Pyrite - Guilt By Association lessons Tabs too difficult? Try these video lessons and learn fast
                Intro(Gtr 1)x4:
E----------------------------------------------------------------------
B----------------------------------------------------------------------
G----------------------------------------------------------------------
D---2-----0---2---2---------2------------------------------------------
A-0---0-3-------0---3-3-3-0---3----------------------------------------
E-----------1-------------------3-1-5-3--------------------------------

Intro(Gtr 2)x2:
E----------------------------------------------------------------------B----------------------------------------------------------------------
G-22222222----------55555555-------------------------------------------
D-22222222-33333333-55555555-55555555----------------------------------
A-00000000-33333333-33333333-55555555----------------------------------
E----------11111111----------33333333----------------------------------

Verse(Gtr 1)P.M:
E----------------------------------------------------------------------B----------------------------------------------------------------------
G----------------------------------------------------------------------
D---2---2-----------5---5----------------------------------------------
A-0---0-----3---3-3---3-----5---5--------------------------------------
E---------1---1-----------3---3----------------------------------------

Verse(Gtr 2)P.M:
E----------------------------------------------------------------------B----------------------------------------------------------------------
G-22222222-55555555----------------------------------------------------
D-22222222-55555555-55555555-33333333----------------------------------
A-00000000-33333333-55555555-33333333----------------------------------
E-------------------33333333-11111111----------------------------------

Chorus(Gtr 1)
E----------------------------------------------------------------------
B----------------------------------------------------------------------
G----------------------------------------------------------------------
D---2-----0---2---2---------2------------------------------------------
A-0---0-3-------0---3-3-3-0---3----------------------------------------
E-----------1-------------------3-1-5-3--------------------------------

Chorus(Gtr 2)
E----------------------------------------------------------------------B----------------------------------------------------------------------
G-22222222----------55555555-------------------------------------------
D-22222222-33333333-55555555-55555555----------------------------------
A-00000000-33333333-33333333-55555555----------------------------------
E----------11111111----------33333333----------------------------------
            

comments powered by Disqus
↑ Back to top | Unsigned Tabs for Pyrite - Guilt By Association. Lyrics for acoustic guitar and electric guitar. Tablatures and chords are parodies/interpretations of the original songs. You may use it for private study, scholarship, research or language learning purposes only