>
 >
Pushing Up Daisies

Pushing Up Daisies Guitar Tabs

Unsigned - Pushing Up Daisies chords, tabs, tablatures, lyrics

Guitar lessons | Add/correct | Request | Top 50 tabs Artists:  A B C D E F G H I J K L M N O P Q R S T U V W X Y Z 0-9

Pushing Up Daisies Guitar Tabs – Unsigned

CD, Sheet music, Poster

Do you like Pushing Up Daisies? Share with your friends now
Tabs
Gabriel's Lullaby

Standard Tuning ( E, A, D, G, B, E )

Guitar 1 Intro
 E |--------------------------------------------|
 B |--------------------------------------------|
 G |--------------------------------------------|
 D |----------0----------0---------0---------0--| Times 3
 A |-------5----5-----5---5----5----5----5---5--|
 E |---7------------5---------3---------5-------|
 after 3
Verse
|------------------------------------------|
|------------------------------------------|
|------------------------------------------|Times 3
|------------------------------------------|
|---------5---------5---------5---------5--|
|---7-7----7-5-5----5-3-3---3-5-5----5-----|

Guitar 2 (After the second 5,5,0)
 E |--------------------------------|
 B |---12--14--12--10--12--10--8--7-|
 G |--------------------------------|
 D |--------------------------------|
 A |--------------------------------|
 E |--------------------------------|

Guitar 1&2 play chorus as a round
Guitar 1
Chorus
|---------------------------------|
|---------------------------------|
|---------77777-------------------|Times 4
|---999---77777--777--55555-------|
|---999---55555--777--55555-------|
|---777-------------555---33333---|

Guitar 2
|----------------------------------|
|----------------------------------|
|----------77777---666-----44444---|
|----999---77777-------------------|
|----999---55555---777-----55555---|
|----777---------------555----33333|

Bridge guitars 1&2
|-------------------------------------------------------------|
|-------------------------------------------------------------|
|-555555555555555-77777777777777777-99999999991099999999999109|
|-555555555555555-77777777777777777-99999999991099999999999109|
|-333333333333333-55555555555555555-777777777787--777777777787|
|-------------------------------------------------------------|
Guitar 1 does chorus while guitar 2 repeats bridge.|





Comments


Popular Unsigned tabs & chords
Aimless- Why Cant You See Bass Tabs
Broken Child - 24/7 Bass Tabs
Frenzy - End Of My World Bass Tabs
Pop Up - Craze Bass Tabs
Scope - Hurting Me Bass Tabs
Yuk Foo - March Of The Chickens Bass Tabs
Balthazar - Strum Tabs
Behind The Truth - One And The Same Tabs
Blue-Unwind Tabs
Egoshed-The Dark Inside Us Tabs


Song lyrics



↑ Back to top | Tablatures and chords are parodies/interpretations of the original songs. You may use it for private study, scholarship, research or language learning purposes only
© 2014 AZChords.com Contact us | Privacy policy | DMCA | Add/correct tabs | Request tabs | Top 50 tabs