>
 >
Push 27 - Rudolph The Red-Nosed Reindeer

Push 27 - Rudolph The Red-Nosed Reindeer Guitar Tabs

Unsigned - Push 27 - Rudolph The Red-Nosed Reindeer chords, tabs, tablatures, lyrics

Guitar lessons | Add/correct | Request | Top 50 tabs Artists:  A B C D E F G H I J K L M N O P Q R S T U V W X Y Z 0-9

Push 27 - Rudolph The Red-Nosed Reindeer Guitar Tabs – Unsigned

CD, Sheet music, Poster

Do you like Push 27 - Rudolph The Red-Nosed Reindeer? Share with your friends now
Tabs
-----------------------------------------------------------
|Push 27's Heavy Version of "Rudolph the Red-Nosed Reindeer"|
 -----------------------------------------------------------

Note: Arranged for 2 guitars 

 ------------
|Chords Used:|
 ------------

A   x02200
D7  x545xx
Dm  x532xx
Em  022000
F   x03210
G   x322xx
G7  3230xx
G/B x2003x
A5  577xxx
C5  x355xx
D5  x577xx
E5  x799xx

 ------
|Riffs:|
 ------

#1:

e|---------------------------------------
B|---------------------------------------
G|-------5-7-7/9-99--10--10-9------------
D|-----7----------------------12-10-8----
A|--10--------------------------------10-
E|---------------------------------------

#2:

e|------------------------------------------
B|------------------------------------15-13-
G|---------------------12-14-12-14----------
D|-----7------10-7-----------------14-------
A|--10---10-7------10-----------------------
E|------------------------------------------

 ------------------------
|Intro: (Guitar 1: Clean)|
 ------------------------

Em       F          Em         Dm          G        

You know Dasher and Dancer and Prancer and Vixen

F         Em        Dm         G

Comet and Cupid and Donner and Blitzen...

Dm            G            D7                 G/B   G7

But do you recall the most famous reindeer of all?

 -------------------------------------------------------------------
|Intro ends: (Guitar 1&or2: Distorted -- don't forget to palm mute!)|
 -------------------------------------------------------------------

C5                                              A5 G5

Rudolp the red-nosed reindeer, had a ver-ry shin-y nose

G5                                               C5

And if you ev--er saw it, you would ev-en say it glows

C5                                               A5  G5

All of the other reindeer used to laugh and call him names

G5                                               C5

They never let poor Rudolph join in any reindeer games

F5              C5             D5    G5     C5

Then one fogg-y Christmas Eve, Santa came to say

                    -----------------------
                   |(Guitar 1 plays riff 1)|
                    -----------------------

G5  A   C5   D5   E5   E5  E5~    E5    E5  D5    C5  C5    A G5

Rudolph with your nose so bright, won't you guide my sleigh tonight?

C5                                                  A5   G5

Then how the reindeer loved him as they shouted out with glee

                    -----------------------
                   |(Guitar 1 plays riff 2)|
                    -----------------------

G5                              G5     A5 G5   A5 G5~  G/B~ C5~

Rudolph the red-nosed reindeer, you'll go down in his--to---ry!

 -----------------------------------------------------------------------------------------------
|Song "Ends": (Guitar 2: Distorted plays rhythm over again while Guitar 1: Distorted plays solo)|
 -----------------------------------------------------------------------------------------------
 
 ---------------------------
|Solo: (Guitar 1: Distorted)| 
 ---------------------------

e|----------------------------------------------
B|----------------------------------------------
G|----------------------------------------------
D|-----7------10b-7----------7----7----10b-9v~--
A|--10---10-7-------10v~--10---10---10----------
E|----------------------------------------------

e|----------------------------------------------
B|----------------------------------------------
G|----------------------------------------------
D|-----7------10b-7----------7----7----7b-5v~---
A|--10---10-7-------10v~--10---10---10----------
E|----------------------------------------------


e|----------------------------------------------
B|----------------------------------------------
G|----------------------------------------------
D|-----7------10b-7----------7----7----10b-9v~--
A|--10---10-7-------10v~--10---10---10----------
E|----------------------------------------------

e|------------------------------------------------
B|------------------------------------------------
G|------------------------------------------------
D|-----7------10b-7----------7----7----12b-10v~---
A|--10---10-7-------10v~--10---10---10------------
E|------------------------------------------------

e|---------------------------------------------------
B|---------------------------------------------------
G|----------5----------------------------------------
D|--7b~-7b~---7-5----5v~----7-5----------------------
A|----------------7b-----8b-----8-7v~----------------
E|---------------------------------------------------

e|---------------------------------------------------
B|---------------------------------------------------
G|---------5-7-7/9-99v~--10--10-9--------------------
D|-------7------------------------12-10-8------------
A|--10v~----------------------------------10-101010v~
E|---------------------------------------------------

e|----------------------------------------------
B|----------------------------------------------
G|----------------------------------------------
D|-----7------10b-7----------7----7----10b-9v~--
A|--10---10-7-------10v~--10---10---10----------
E|----------------------------------------------

e|---------------------------------------------------
B|-----------------------------------------15br-13v~-
G|-----------------------12-14-12-14-----------------
D|-----7------10b-7-------------------14b~-----------
A|--10---10-7-------10v~-----------------------------
E|---------------------------------------------------





Comments


Popular Unsigned tabs & chords
7th Solution - Immortal Bass Tabs
Chain - Tired Bass Tabs
Hernia - Smells Like Teen Spirit Bass Tabs
Arbol - La Vida Tabs
Attention Def - Worst Things Worst Tabs
Black Dawn-Like Im Falling Tabs
Bluish Tune Tabs
Fernands Band - Kill The Kkk Tabs
Fernands Band - Mexican Mafia Tabs
Great White Something - The Warning Tabs


Song lyrics



↑ Back to top | Tablatures and chords are parodies/interpretations of the original songs. You may use it for private study, scholarship, research or language learning purposes only
© 2014 AZChords.com Contact us | Privacy policy | DMCA | Add/correct tabs | Request tabs | Top 50 tabs