» » »

Purple Monkey Dishwasher - Stoner Song Tabs (ver.1)

Artists:  A B C D E F G H I J K L M N O P Q R S T U V W X Y Z # 

Purple Monkey Dishwasher - Stoner Song Tabs (ver.1)

Unsigned
Rating:
0/5 (0 votes)

Hard to play? Try these video lessons and learn fast.
                unsigned - the stoners song







|--------------------------------------------------------|
|--------------------------------------------------------|
|--------------------------------------------------------|
|--------------------------------------------------------|
|--------------------------------------------------------|
|-0-0-4-4-5--5---0-0-4-4-5--5---0-0-4-4-5--5---7-7-6-6-5-|





|--------------------------------------------------------|
|--------------------------------------------------------|
|--------------------------------------------------------|
|--------------------------------------------------------|
|--------------------------------------------------------|
|-0-0-4-4-5--5---0-0-4-4-5--5---0-0-4-4-5--5---7-7-6-6-5-|





|--------------------------------------------------------|
|--------------------------------------------------------|
|--------------------------------------------------------|
|--------------------------------------------------------|
|--------------------------------------------------------|
|-0-0-4-4-5--5---0-0-4-4-5--5---0-0-4-4-5--5---7-7-6-6-5-|





|--------------------------------------------------------|
|--------------------------------------------------------|
|--------------------------------------------------------|
|--------------------------------------------------------|
|--------------------------------------------------------|
|-0-0-4-4-5--5---0-0-4-4-5--5---0-0-4-4-5--5---7-7-6-6-5-|






thats it stoner song
            
Hard to play? Try these video lessons and learn fast. | Correct




comments powered by Disqus
↑ Back to top | Tablatures and chords are parodies/interpretations of the original songs. You may use it for private study, scholarship, research or language learning purposes only