» » »

Psycoward-If I Die Tabs (ver.1)

Artists:  A B C D E F G H I J K L M N O P Q R S T U V W X Y Z # 

Psycoward-If I Die Tabs (ver.1)

Unsigned
Rating:
0/5 (0 votes)

Hard to play? Try these video lessons and learn fast.
                This is a song from my band psycoward, we are from walla walla, WA.  this is our song its like only verse/chorus type stuff you know real basic but it sounds cool.  I guess??
Pm…= palm mute

Verse:
clean
e----------------------------------------------------------------------------------------------------------
B---------------------------------------------------------------------------------------------------------
G---------------------------------------------------------------------------------------------------------
D---------------------------------------------------------------------------------------------------------
A---1-----2----------------------------------------------------------------------------------------------
E-0----0-----0-3-3-3-3-2-------------------------------------------------------------------------------


Chorus
Heavy Distortion
e----------------------------------------------------------------------------------------------------------
B---------------------------------------------------------------------------------------------------------
G---------------------------------------------------------------------------------------------------------
D-2-2-2-2-2-2-2-2---5-5-5-5-5-4--------------------------------------------------------------------
A-2-2-2-2-2-2-2-2---5-5-5-5-5-4--------------------------------------------------------------------
E-0-0-0-0-0-0-0-0---3-3-3-3-3-2---------------------------------------------------------------------
pm………….……
            
Hard to play? Try these video lessons and learn fast. | Correct




comments powered by Disqus
↑ Back to top | Tablatures and chords are parodies/interpretations of the original songs. You may use it for private study, scholarship, research or language learning purposes only