» » »

Prometheus - Escape Tabs (ver.1)

Artists:  A B C D E F G H I J K L M N O P Q R S T U V W X Y Z # 

Prometheus - Escape Tabs (ver.1)

Unsigned
Rating:
0/5 (0 votes)

Hard to play? Try these video lessons and learn fast.
                Prometheus
   ~Escaped~


Standard tuning

(quite fast)

Intro
E--0-0-3-2-0-2-0-3-2-0-5-0-3-0-2--------
B--------------------------------4------
G--------------------------------------------------
D---------------------------------------------------      x2
A---------------------------------------------------
E---------------------------------------------------
 P.Mxxxxxxxxxxxxxxxxxxxxxxx

E---------------------------------------------------
B---------------------------------------------------
G--0-0-3-2-0-2-0-3-2-0-5-0-3-0-2--------
D--0---------------------0-------4----    x2
A--------------------------------------------------
E--------------------------------------------------


E--------------------------------------------------
B--------------------------------------------------
G--0-0-3-2-0-2-0-3-2-0-5-0-3-0-2-0-----
D--0-0-3-2-0-2-0-3-2-0-5-0-3-0-2-0-----    x2
A--0-0-1-0-0-0-0-1-0-0-3-0-1-0-0-0-----
E--------------------------------------------------

Verse
E-------------------------------------------------------
B-------------------------------------------------------
G-------------------------------------------------------
D--3-x-x-x-5-5-3-x-x-x-5-5-7-x-x-x-7-7-3---      x2
A--3-x-x-x-5-5-3-x-x-x-5-5-7-x-x-x-7-7-3---
E--1-x-x-x-3-3-1-x-x-x-3-3-5-x-x-x-5-5-1---

Chorus
E------------------------------------------------------------
B------------------------------------------------------------
G------------------------------------------------------------
D--4-x-4-x-4-x-4/7-x-7-x-7-x-7/9-x-9-x-9-x-9\3-3-2-2--      x2
A--4-x-4-x-4-x-4/7-x-7-x-7-x-7/9-x-9-x-9-x-9\3-3-2-2--
E--2-x-2-x-2-x-2/5-x-5-x-5-x-5/7-x-7-x-7-x-7\1-1-0-0---

Bridge (solo) - fast double time
E--16-16-19-18-16-18-16-19-18-16-21-16-19-16-18-16--
B-------------------------------------------------------------
G-------------------------------------------------------------
D-------------------------------------------------------------      x2
A-------------------------------------------------------------
E-------------------------------------------------------------

Song Structure
Intro
Verse
Chorus
Verse
Chorus 
Bridge
Chorus
            
Hard to play? Try these video lessons and learn fast. | Correct




comments powered by Disqus
↑ Back to top | Tablatures and chords are parodies/interpretations of the original songs. You may use it for private study, scholarship, research or language learning purposes only