» » »

Powersurg-Always Watching Bass tabs (ver.1)

Artists:  A B C D E F G H I J K L M N O P Q R S T U V W X Y Z # 

Powersurg-Always Watching Bass tabs (ver.1)

Unsigned
Rating:
0/5 (0 votes)

Hard to play? Try these video lessons and learn fast.
                "*POP IT

G--------------------------------
D--------------------------------
A-1-2-3-----1-2-3--2---1---------
E------(1-3)------1-3-1----------

G--------------------------------
D--------1-----------------------
A-1-1-1--------*1-*2-*3--*2----*1-------------
E--1-1-1----------------*1-*3-*1----------





first tab and my own song
"            
Hard to play? Try these video lessons and learn fast. | Correct




comments powered by Disqus
↑ Back to top | Tablatures and chords are parodies/interpretations of the original songs. You may use it for private study, scholarship, research or language learning purposes only