» » »

Unsigned, Pop Up - Abuse Bass tabs (ver.1)

Artists:  A B C D E F G H I J K L M N O P Q R S T U V W X Y Z # 

Pop Up - Abuse Bass tabs (ver.1)

Unsigned Tabs
 Rating:
4/5 (4 votes)
Pop Up - Abuse lessons Tabs too difficult? Try these video lessons and learn fast
                Band - PoP uP
Song - Abuse

Hey guys and gurls this one is new made it at a practice at Mirage the other night
so here it is -

---------------------------I
---------------------------I
---------------------------I
-0-0-0-0-0-1-1-1-1-1-5-5-5-I

---------------------------I
-0/--1/--5/--0/--1/--5-----I
---------------------------I
-----------------------000-I

---------------------------I
---------------------------I
---------------------------I
-000000000000-555555555555-I

----------------------------I
----------------------------I
--2--4--2--6--2--8--6--2--4-I
-0--0--0--0--0--0--0--0--0--I

---------------------------I
-0/--1/--5/--0/--1/--5-----I
---------------------------I
-----------------------000-I

---------------------------I
---------------------------I
---------------------------I
-0-0-0-0-0-1-1-1-1-1-5-5-5-I

Thats it all in order its a pity you probably won't have heard us yet
so you can't play the song properley but hopefully we will get a site
together soon. C u later

Ace site , Ace Tab , Ace life
            
Submit corrections

comments powered by Disqus
↑ Back to top | Unsigned Bass for Pop Up - Abuse. Lyrics for acoustic guitar and electric guitar. Tablatures and chords are parodies/interpretations of the original songs. You may use it for private study, scholarship, research or language learning purposes only