» » »

Unsigned, Point Of Impact - Divination Tabs (ver.1)

Artists:  A B C D E F G H I J K L M N O P Q R S T U V W X Y Z # 

Point Of Impact - Divination Tabs (ver.1)

Unsigned Tabs
 Rating:
4/5 (4 votes)
Point Of Impact - Divination lessons Tabs too difficult? Try these video lessons and learn fast
1
                <---> = Muted.
h = Hammer On
p = Pull off
x = Palm mute
{12345} = All Muted Inside Brackets

Intro. (Guitar 1)
E--5-5-5-5-5--7-8-7----------------------------------------------
B---5-5-5-5-5--5-5-5-5-6-6-8-5-5-5-5-----------------------------
G---------------------5-5-5-5-4-4-4-4----------------------------
D----------------------------------------------------------------
A----------------------------------------------------------------
E----------------------------------------------------------------
   X 4 

Intro. (Guitar 2)
Enter on 3rd repetition.
E----------------------------------------------------------------
B----------------------------------------------------------------
G----------------------------------------------------------------
D--7{77777777799101099}3{33333}5{22222222}-----------------------
A--7{77777777799101099}3{33333}5{22222222}-----------------------
E--5{555555555778-8-77}1{11111}3{00000000}-----------------------
   X 2

Verse. (Guitar 1)
E----------------------------------------------------------------
B----------------------------------------------------------------
G----------------------------------------------------------------
D--7{77777777799101099}3{33333}5{22222222}-----------------------
A--7{77777777799101099}3{33333}5{22222222}-----------------------
E--5{555555555778-8-77}1{11111}3{00000000}-----------------------
   X 1

Play Intro X 1
Verse Cont. (Guitar 1)
E----------------------------------------------------------------
B----------------------------------------------------------------
G----------------------------------------------------------------
D--777777777799101099333333522222222-----------------------------
A--777777777799101099333333522222222-----------------------------
E--5555555555778-8-77111111300000000-----------------------------
   X 2

Verse. (Guitar 2)
Pick-Slide into:
E----------------------------------------------------------------
B----------------------------------------------------------------
G----------------------------------------------------------------
D--7{77777777799101099}3{33333}5{22222222}-----------------------
A--7{77777777799101099}3{33333}5{22222222}-----------------------
E--5{555555555778-8-77}1{11111}3{00000000}-----------------------
   X 2  Play it again X 2 but without any Muting, just strumming.

Chorus (Both Guitars 1 & 2)
            
Submit corrections

comments powered by Disqus
↑ Back to top | Unsigned Tabs for Point Of Impact - Divination. Lyrics for acoustic guitar and electric guitar. 1 Tablatures and chords are parodies/interpretations of the original songs. You may use it for private study, scholarship, research or language learning purposes only