» » »

Unsigned, Plank! - The Real World Bass tabs (ver.1)

Artists:  A B C D E F G H I J K L M N O P Q R S T U V W X Y Z # 

Plank! - The Real World Bass tabs (ver.1)

Unsigned Tabs
Rating:
0/5 (0 votes)
Plank! - The Real World lessons Tabs too difficult? Try these video lessons and learn fast
                

Riff 1

G------------------------------------------------------------------------------------
D------------------------—3----2------3—2------3----2--------------------------------
A-----------------------------------333-------333---------33-------------------------
E---------------------------------------------------------------0--------------------
                                       1  2  2  3  4 1 2 2 3  4 1  2  2  3  4

Verse

G|--------------------------------------------------------------------
D|--2-2-2-2-2-2-2-2-3-3-3-3-3-3-3-3----------------------------------
A|----------------------------------3-3-3-3-3-3-3-3-5-5-5-5-5-5-5-5--
E|-------------------------------------------------------------------

Chorus
Play 2 times
Bass Fig. 2                                                               End of Bass Fig.2
G|---------------------------------------------------------------
D|---------------------------------------------------------------
A|---------------------------------------------------------------
E|--5-5-5-5-5-5-5-5-3-3-3-3-3-3-3-3--2222222222222222–0-0-0-0-0--

End Note
G|-----
D|-----
A|-----
E|--0--
Song Order:
Riff 1 x2
REST
Verse x2
Chorus x2
Riff 1 x2
REST
Verse x4
Chorus x2
Riff 1 x2
PAUSE
End Note

This song was tabbed on 11th August 2002.
            
Submit corrections

comments powered by Disqus
↑ Back to top | Unsigned Bass for Plank! - The Real World. Lyrics for acoustic guitar and electric guitar. Tablatures and chords are parodies/interpretations of the original songs. You may use it for private study, scholarship, research or language learning purposes only