» » »

Unsigned, Pilot 101 - Wasting Time Bass tabs (ver.1)

Artists:  A B C D E F G H I J K L M N O P Q R S T U V W X Y Z # 

Pilot 101 - Wasting Time Bass tabs (ver.1)

Unsigned Tabs
 Rating:
4/5 (4 votes)
Pilot 101 - Wasting Time lessons Tabs too difficult? Try these video lessons and learn fast
1
                tab written by: Scott Melrose (bassist from pilot 101)



INTRO (PLAY TWICE)
G--9-9-10-10-11-11--9-9-10-10-11-----------
D------------------------------------------
A------------------------------------------
E------------------------------------------

VERSE:
G-------------------------------------------
D--2-4-0-2--2-4-0-2-------------------------
A-------------------2-0-4-0-2-------------11
E------------------------------0-0-1/11-11--

CHORUS: REPEAT UNTIL END
G------------------------------------------
D------------------------------------------
A--11-11-11/999/777/999/11-11-11-----------
E------------------------------------------

OUTRO: SAME AS INTRO ONLY SLOW AND THEN BEGIN TO FADE.
            
Submit corrections

comments powered by Disqus
↑ Back to top | Unsigned Bass for Pilot 101 - Wasting Time. Lyrics for acoustic guitar and electric guitar. 1 Tablatures and chords are parodies/interpretations of the original songs. You may use it for private study, scholarship, research or language learning purposes only