» » »

Unsigned, Pigfinger-One Headless Man Tabs (ver.1)

Artists:  A B C D E F G H I J K L M N O P Q R S T U V W X Y Z # 

Pigfinger-One Headless Man Tabs (ver.1)

Unsigned Tabs
 Rating:
4/5 (4 votes)
Pigfinger-One Headless Man lessons Tabs too difficult? Try these video lessons and learn fast
                pigfinger
graded
cgcfad

d]----------------------------------------
a]----------------------------------------
f]----------------------------------------
c]----------------------------------------
g]----------------------------------------
c]99999999h1010p9999----99999999h1010p9999

d]----------------------------------------
a]----------------------------------------
f]----------------------------------------
c]----------------------------------------
g]----------------------------------------
c]99999999h1010p9999----99999999h1010p9999

d]---------------------------------  
a]---------------------------------
f]---------------------------------
c]3-1--------------3-1-------------
g]3-1--0-2-3-2-3-2-3-1--0-2-3-2-3-2
c]3-1--0-2-3-2-3-2-3-1--0-2-3-2-3-2

d]---------------------------------  
a]---------------------------------
f]---------------------------------
c]3-1--------------3-1-------------
g]3-1--0-2-3-2-3-2-3-1--0-2-3-2-3-2
c]3-1--0-2-3-2-3-2-3-1--0-2-3-2-3-2

d]----------------------------------------
a]----------------------------------------
f]----------------------------------------
c]----------------------------------------
g]----------------------------------------
c]99999999h1010p9999----99999999h1010p9999

d]----------------------------------------
a]----------------------------------------
f]----------------------------------------
c]----------------------------------------
g]----------------------------------------
c]99999999h1010p9999----99999999h1010p9999

d]---------------------------------  
a]---------------------------------
f]---------------------------------
c]3-1--------------3-1-------------
g]3-1--0-2-3-2-3-2-3-1--0-2-3-2-3-2
c]3-1--0-2-3-2-3-2-3-1--0-2-3-2-3-2

d]---------------------------------  
a]---------------------------------
f]---------------------------------
c]3-1--------------3-1-------------
g]3-1--0-2-3-2-3-2-3-1--0-2-3-2-3-2
c]3-1--0-2-3-2-3-2-3-1--0-2-3-2-3-2

d]---------------------------------------------------
a]---------------------------------------------------
f]---------------------------------------------------
c]---------------------------------------------------
g]3-0-0-3-0-0-3-0-0-3-0-0-0-3-2-2-3-2-2-3-2-2-3-2-2-2          
c]3-0-0-3-0-0-3-0-0-3-0-0-0-3-2-2-3-2-2-3-2-2-3-2-2-2

d]----------------------------------------
a]----------------------------------------
f]----------------------------------------
c]----------------------------------------
g]----------------------------------------
c]99999999h1010p9999----99999999h1010p9999

d]----------------------------------------
a]----------------------------------------
f]----------------------------------------
c]----------------------------------------
g]----------------------------------------
c]99999999h1010p9999----99999999h1010p9999

d]---------------------------------  
a]---------------------------------
f]---------------------------------
c]3-1--------------3-1-------------
g]3-1--0-2-3-2-3-2-3-1--0-2-3-2-3-2
c]3-1--0-2-3-2-3-2-3-1--0-2-3-2-3-2

d]---------------------------------  
a]---------------------------------
f]---------------------------------
c]3-1--------------3-1-------------
g]3-1--0-2-3-2-3-2-3-1--0-2-3-2-3-2
c]3-1--0-2-3-2-3-2-3-1--0-2-3-2-3-2

d]----------------------------------------
a]----------------------------------------
f]----------------------------------------
c]----------------------------------------
g]----------------------------------------
c]99999999h1010p9999----99999999h1010p9999

d]----------------------------------------
a]----------------------------------------
f]----------------------------------------
c]----------------------------------------
g]----------------------------------------
c]99999999h1010p9999----99999999h1010p9999

d]---------------------------------  
a]---------------------------------
f]---------------------------------
c]3-1--------------3-1-------------
g]3-1--0-2-3-2-3-2-3-1--0-2-3-2-3-2
c]3-1--0-2-3-2-3-2-3-1--0-2-3-2-3-2

d]---------------------------------  
a]---------------------------------
f]---------------------------------
c]3-1--------------3-1-------------
g]3-1--0-2-3-2-3-2-3-1--0-2-3-2-3-2
c]3-1--0-2-3-2-3-2-3-1--0-2-3-2-3-2

d]---------------------------------------------------
a]---------------------------------------------------
f]---------------------------------------------------
c]---------------------------------------------------
g]3-0-0-3-0-0-3-0-0-3-0-0-0-3-2-2-3-2-2-3-2-2-3-2-2-2          
c]3-0-0-3-0-0-3-0-0-3-0-0-0-3-2-2-3-2-2-3-2-2-3-2-2-2

d]-------------------
a]-------------------
f]-------------------
c]0~-----------------  
g]0~-----------------
c]0~----------------- 

d]----------------------------
a]----------------------------
f]5-5-5-5-5-55--5-5-5-5-5-55--
c]3-3-3-3/4\33--3-3-3-3/4\33--
g]3-3-3-3/4\33--3-3-3-3/4\33--
c]3-3-3-3/4\33--3-3-3-3/4\33--

d]----------------------------
a]----------------------------
f]5-5-5-5-5-55--5-5-5-5-5-55--
c]x-x-x-x-x-xx--x-x-x-x-x-xx--
g]3-3-3-3/4\33--3-3-3-3/4\33--
c]0-0-0-0-0-00--0-0-0-0-0-00--

d]----------------------------
a]----------------------------
f]5-5-5-5-5-55--5-5-5-5-5-55--
c]3-3-3-3/4\33--3-3-3-3/4\33--
g]3-3-3-3/4\33--3-3-3-3/4\33--
c]3-3-3-3/4\33--3-3-3-3/4\33--

d]----------------------------
a]----------------------------
f]5-5-5-5-5-55--5-5-5-5-5-55--
c]x-x-x-x-x-xx--x-x-x-x-x-xx--
g]3-3-3-3/4\33--3-3-3-3/4\33--
c]0-0-0-0-0-00--0-0-0-0-0-00--

d]----------------------------------------------------------------
a]----------------------------------------------------------------
f]7777777777777777----------------7777777777777777----------------
c]5555555555555555666666666666666655555555555555556666666666666666
g]5555555555555555666666666666666655555555555555556666666666666666
c]5555555555555555666666666666666655555555555555556666666666666666

d]-------------------
a]-------------------
f]-------------------
c]0~-----------------  
g]0~-----------------
c]0~----------------- 

d]----------------------------------------
a]----------------------------------------
f]----------------------------------------
c]----------------------------------------
g]----------------------------------------
c]99999999h1010p9999----99999999h1010p9999

d]----------------------------------------
a]----------------------------------------
f]----------------------------------------
c]----------------------------------------
g]----------------------------------------
c]99999999h1010p9999----99999999h1010p9999

d]---------------------------------  
a]---------------------------------
f]---------------------------------
c]3-1--------------3-1-------------
g]3-1--0-2-3-2-3-2-3-1--0-2-3-2-3-2
c]3-1--0-2-3-2-3-2-3-1--0-2-3-2-3-2

d]---------------------------------  
a]---------------------------------
f]---------------------------------
c]3-1--------------3-1-------------
g]3-1--0-2-3-2-3-2-3-1--0-2-3-2-3-2
c]3-1--0-2-3-2-3-2-3-1--0-2-3-2-3-2

d]----------------------------------------
a]----------------------------------------
f]----------------------------------------
c]----------------------------------------
g]----------------------------------------
c]99999999h1010p9999----99999999h1010p9999

d]----------------------------------------
a]----------------------------------------
f]----------------------------------------
c]----------------------------------------
g]----------------------------------------
c]99999999h1010p9999----99999999h1010p9999

d]---------------------------------  
a]---------------------------------
f]---------------------------------
c]3-1--------------3-1-------------
g]3-1--0-2-3-2-3-2-3-1--0-2-3-2-3-2
c]3-1--0-2-3-2-3-2-3-1--0-2-3-2-3-2

d]---------------------------------  
a]---------------------------------
f]---------------------------------
c]3-1--------------3-1-------------
g]3-1--0-2-3-2-3-2-3-1--0-2-3-2-3-2
c]3-1--0-2-3-2-3-2-3-1--0-2-3-2-3-2

d]--------------------------------------------------
a]--------------------------------------------------
f]--------------------------------------------------
c]--------------------------------------------------
g]5-4-0-5-4-0-5-4-0-5-4-0--3-2-0-3-2-0-3-2-0-3-2-0--
c]5-4-0-5-4-0-5-4-0-5-4-0--3-2-0-3-2-0-3-2-0-3-2-0--

d]--------------------------------------------------
a]--------------------------------------------------
f]--------------------------------------------------
c]--------------------------------------------------
g]5-4-0-5-4-0-5-4-0-5-4-0--3-2-0-3-2-0-3-2-0-3-2-0--
c]5-4-0-5-4-0-5-4-0-5-4-0--3-2-0-3-2-0-3-2-0-3-2-0--

d]---------------------------------  
a]---------------------------------
f]---------------------------------
c]3-1--------------3-1-------------
g]3-1--0-2-3-2-3-2-3-1--0-2-3-2-3-2
c]3-1--0-2-3-2-3-2-3-1--0-2-3-2-3-2

d]---------------------------------  
a]---------------------------------
f]---------------------------------
c]3-1--------------3-1-------------
g]3-1--0-2-3-2-3-2-3-1--0-2-3-2-3-2
c]3-1--0-2-3-2-3-2-3-1--0-2-3-2-3-2

d]----------------------------------------
a]----------------------------------------
f]----------------------------------------
c]----------------------------------------
g]----------------------------------------
c]99999999h1010p9999----99999999h1010p9999

d]----------------------------------------
a]----------------------------------------
f]----------------------------------------
c]----------------------------------------
g]----------------------------------------
c]99999999h1010p9999----99999999h1010p9999

d]----------------------------------------
a]----------------------------------------
f]----------------------------------------
c]----------------------------------------
g]----------------------------------------
c]99999999h1010p9999----99999999h1010p9999

d]----------------------------------------
a]----------------------------------------
f]----------------------------------------
c]----------------------------------------
g]----------------------------------------
c]99999999h1010p9999----99999999h1010p9999

d]---------------------------------
a]---------------------------------
f]---------------------------------
c]---------------------------------
g]5-5-5-5-5-5-5-5-5-5-5-5-5-5-5--<5>
c]5-5-5-5-5-5-5-5-5-5-5-5-5-5-5--<5>

d]---------------------------------
a]---------------------------------
f]---------------------------------
c]---------------------------------
g]5-5-5-5-5-5-5-5-5-5-5-5-5-5-5--<5>
c]5-5-5-5-5-5-5-5-5-5-5-5-5-5-5--<5>

d]---------------------------------
a]---------------------------------
f]---------------------------------
c]---------------------------------
g]5-5-5-5-5-5-5-5-5-5-5-5-5-5-5--<5>
c]5-5-5-5-5-5-5-5-5-5-5-5-5-5-5--<5>

d]---------------------------------
a]---------------------------------
f]---------------------------------
c]---------------------------------
g]5-5-5-5-5-5-5-5-5-5-5-5-5-5-5--<5>
c]5-5-5-5-5-5-5-5-5-5-5-5-5-5-5--<5>

d]----------------------------
a]----------------------------
f]5-5-5-5-5-55--5-5-5-5-5-55--
c]3-3-3-3/4\33--3-3-3-3/4\33--
g]3-3-3-3/4\33--3-3-3-3/4\33--
c]3-3-3-3/4\33--3-3-3-3/4\33--

d]----------------------------
a]----------------------------
f]5-5-5-5-5-55--5-5-5-5-5-55--
c]x-x-x-x-x-xx--x-x-x-x-x-xx--
g]3-3-3-3/4\33--3-3-3-3/4\33--
c]0-0-0-0-0-00--0-0-0-0-0-00--

d]----------------------------
a]----------------------------
f]5-5-5-5-5-55--5-5-5-5-5-55--
c]3-3-3-3/4\33--3-3-3-3/4\33--
g]3-3-3-3/4\33--3-3-3-3/4\33--
c]3-3-3-3/4\33--3-3-3-3/4\33--

d]----------------------------
a]----------------------------
f]5-5-5-5-5-55--5-5-5-5-5-55--
c]x-x-x-x-x-xx--x-x-x-x-x-xx--
g]3-3-3-3/4\33--3-3-3-3/4\33--
c]0-0-0-0-0-00--0-0-0-0-0-00--

d]----------------------------------------------------------------
a]----------------------------------------------------------------
f]7777777777777777----------------7777777777777777----------------
c]5555555555555555666666666666666655555555555555556666666666666666
g]5555555555555555666666666666666655555555555555556666666666666666
c]5555555555555555666666666666666655555555555555556666666666666666

d]----------------------------
a]----------------------------
f]5-5-5-5-5-55--5-5-5-5-5-55--
c]3-3-3-3/4\33--3-3-3-3/4\33--
g]3-3-3-3/4\33--3-3-3-3/4\33--
c]3-3-3-3/4\33--3-3-3-3/4\33--

d]----------------------------
a]----------------------------
f]5-5-5-5-5-55--5-5-5-5-5-55--
c]x-x-x-x-x-xx--x-x-x-x-x-xx--
g]3-3-3-3/4\33--3-3-3-3/4\33--
c]0-0-0-0-0-00--0-0-0-0-0-00--

d]----------------------------
a]----------------------------
f]5-5-5-5-5-55--5-5-5-5-5-55--
c]3-3-3-3/4\33--3-3-3-3/4\33--
g]3-3-3-3/4\33--3-3-3-3/4\33--
c]3-3-3-3/4\33--3-3-3-3/4\33--

d]----------------------------
a]----------------------------
f]5-5-5-5-5-55--5-5-5-5-5-55--
c]x-x-x-x-x-xx--x-x-x-x-x-xx--
g]3-3-3-3/4\33--3-3-3-3/4\33--
c]0-0-0-0-0-00--0-0-0-0-0-00--

d]----------------------------------------------------------------
a]----------------------------------------------------------------
f]7777777777777777----------------7777777777777777----------------
c]5555555555555555666666666666666655555555555555556666666666666666
g]5555555555555555666666666666666655555555555555556666666666666666
c]5555555555555555666666666666666655555555555555556666666666666666

d]-------------------
a]-------------------
f]-------------------
c]0~-----------------  
g]0~-----------------
c]0~-----------------

d]-------------------
a]-------------------
f]-------------------
c]0~-----------------  
g]0~-----------------
c]0~-----------------

d]-------------------
a]-------------------
f]-------------------
c]0~-----------------  
g]0~-----------------
c]0~-----------------

d]-------------------
a]-------------------
f]-------------------
c]0~-----------------  
g]0~-----------------
c]0~-----------------

d]-------------------
a]-------------------
f]-------------------
c]0~-----------------  
g]0~-----------------
c]0~-----------------

d]-------------------
a]-------------------
f]-------------------
c]0~-----------------  
g]0~-----------------
c]0~-----------------

d]-----------------------------------------------------
a]-----------------------------------------------------
f]-----------------------------------------------------
c]-----------------------------------------------------
g]-----------------------------------------------------
c]023032023032023032023032023\2/3\3/2\3/2\3/2\3/220~~~~

d]-------------------
a]-------------------
f]-------------------
c]0~-----------------  
g]0~-----------------
c]0~-----------------

d]-------------------
a]-------------------
f]-------------------
c]0~-----------------  
g]0~-----------------
c]0~-----------------
            
Submit corrections

comments powered by Disqus
↑ Back to top | Unsigned Tabs for Pigfinger-One Headless Man. Lyrics for acoustic guitar and electric guitar. Tablatures and chords are parodies/interpretations of the original songs. You may use it for private study, scholarship, research or language learning purposes only