» » »

Phq - The Sunshine Room Bass tabs (ver.1)

Artists:  A B C D E F G H I J K L M N O P Q R S T U V W X Y Z # 

Phq - The Sunshine Room Bass tabs (ver.1)

Unsigned
Rating:
0/5 (0 votes)

Hard to play? Try these video lessons and learn fast.
                Hope you like it!
Standard tuning (EADG)

Intro + verse

G[---------------------------------------]
D[---------------------------------------]  x8
A[------2-0-2-0—2-4-22-----2-0-2-0—2-4-22]
E[-0—0----------------0---0--------------]

Bridge 

G[-------------------]
D[-----4-------7-765-]   x3
A[-------------------]
E[-222---2/--5-------]

G[-------------------]
D[-------------------]
A[-------------------]
E[-22222222/55555555-]

Chorus

G[-----------------------------------------------------
D[-----------------------------------------------------
A[--------0—-0-202------0—0-20---------0—0-202---------
E[-0-0—44---------0-0—44------4\0-0-44---------0-0-4-4-

G[---------]
D[---------]
A[00000000-]
E[---------]

Outro

G[---------------------------------------]
D[---------------------------------------]
A[-------22-------0-----22-------00------]
E[---0-0-----00-3---0-0-----00-3----0~~~~]

Hold the last note for 8 beats and then play the whole thing through again with an extra chorus and outro at the end and that is it.
            
Hard to play? Try these video lessons and learn fast. | Correct




comments powered by Disqus
↑ Back to top | Tablatures and chords are parodies/interpretations of the original songs. You may use it for private study, scholarship, research or language learning purposes only