>
 >
Phil Hughes - Prism

Phil Hughes - Prism Guitar Tabs

Unsigned - Phil Hughes - Prism chords, tabs, tablatures, lyrics

Guitar lessons | Add/correct | Request | Top 50 tabs Artists:  A B C D E F G H I J K L M N O P Q R S T U V W X Y Z 0-9

Phil Hughes - Prism Guitar Tabs – Unsigned

CD, Sheet music, Poster

Do you like Phil Hughes - Prism? Share with your friends now
Tabs
Tuning: EBGDAE

Introduction:
e|---------------------------------------------------------------------------|
B|---------------------------------------------------------------------------|
G|---------------------------------------------------------------------------|
D|---4----4-----4-----4----5----5----5----5---Repeat twice (2x)--------------|
A|-2----2-----2-----2----3----3----3----3------------------------------------|
E|---------------------------------------------------------------------------|

Chorus:
e|---------------------------------------------------------------------------|
B|---------------------------------------------------------------------------|
G|-------------------4--4--4--5--5--5----------------------------------------|
D|-2--2--2--2---2----2--2--2--3--3--3---2--2--2--2---2----4--4--4--5--5--5---|
A|-2--2--2--2---2----2--2--2--3--3--3---2--2--2--2---2----2--2--2--3--3--3---|
E|-0--0--0--0h3-3p0---------------------0--0--0--0h3-3p0--2--2--2--3--3--3---|

Verse:
e|---------------------------------------------------------------------------|
B|---------------------------------------------------------------------------|
G|---------------------------------------------------------------------------|
D|---------------------------------------------------------------------------|
A|-7-7-7-x-6-6-6-x-5-5-5--2---2-2---2----------------------------------------|
E|-5-5-5-x-4-4-4-x-3-3-3--0---0-0h3-3p0--------------------------------------|

Solo
e|---------------------------------------------------------------------------|
B|---------------7-7-7h9---9p7-5---7p5--5h7p5--------------------------------|
G|--7-7-7-9-9-9-------------------------------7-7h9-9/11---------------------|
D|---------------------------------------------------------------------------|
A|---------------------------------------------------------------------------|
E|---------------------------------------------------------------------------|

e|---------------------------------------------------------------------------|
B|--10--12-13--10--12-13-----------------------------------------------------|
G|-----------------------10--12-13-------------------------------------------|
D|---------------------------------10--12------------------------------------|
A|-----------------------------------------7h9----------2--(Let Ring)--------|
E|---------------------------------------------5h7-5\1--0--------------------|

Breakdown:
e|---------------------------------------------------------------------------|
B|---------------------------------------------------------------------------|
G|---------------------------------------------------------------------------|
D|--------------------------3h5p5--------------------------------------------|
A|--7--5----5--3--------3h5-------5p3-----------2----------------------------|
E|-------7-------5--3h5---------------5p3 3--2--0----------------------------|



| /  slide up
| \  slide down
| h  hammer-on
| p  pull-off
| ~  vibrato
| +  harmonic
| x  Mute note

Intro
Chorus x4
Verse x8
Chorus x2
Solo
Verse x 4
Chorus x4
Breakdown





Comments


Popular Unsigned tabs & chords
7th Solution - Black Widow Bass Tabs
The Brink Of Extinction - Step Up Bass Tabs
Time For Nothing - Leaving Home Bass Tabs
Yuk Foo - Nameless Bass Tabs
Blinded By Darkness - ~Fallen~ Tabs
Cause And Consequences - Skad 4 Life Tabs
Fernands Band - Screeech Tabs
Glytch - Frustrated Tabs
Halfmast - Dilluted Tabs
Kitts - Doobiewickitywahwah Tabs


Song lyrics



↑ Back to top | Tablatures and chords are parodies/interpretations of the original songs. You may use it for private study, scholarship, research or language learning purposes only
© 2014 AZChords.com Contact us | Privacy policy | DMCA | Add/correct tabs | Request tabs | Top 50 tabs