» » »

Unsigned, Phart - Poopsmack Bass tabs (ver.1)

Artists:  A B C D E F G H I J K L M N O P Q R S T U V W X Y Z # 

Phart - Poopsmack Bass tabs (ver.1)

Unsigned Tabs
 Rating:
4/5 (4 votes)
Phart - Poopsmack lessons Tabs too difficult? Try these video lessons and learn fast
                phart
"poopsmack"
2003


    riff 1     intro/ chorus
G|-------------------------------------------------------
D|------3-2-0-------4--------------3-2-0-----4-----    
A|-2-2--------2-2------3-----2-2--------2-2---4---
E|--------------------------------------------------------

	"I am lord Poopsmack..."
     riff 2
G|------------------------
D|---5-3-5---5-3-5-0-	      
A|-0--------0------------
E|-------------------------

	" I get pushed in the mud..."
       riff 3
G|-----------------------------------------------------------------------
D|------------------------------------00-23-00-23-00-23-00-23-
A|-00-23-00-23-00-23-00-23------------------------------------
E|------------------------------------------------------------------------

           chorus   "I AM...POOPSMACK!..."
    
G|-------------------------------------------------------
D|------3-2-0-------4--------------3-2-0-----4-----    
A|-2-2--------2-2------3-----2-2--------2-2---4---
E|--------------------------------------------------------

   riff 4     outro
G|---------------------------------5-4-3-2-1-0-----
D|-----------------5-4-3-2-1-0---------------------
A|-5-4-3-2-1-0-------------------------------------
E|-------------------------------------------------00-

     order: 
r1- 3x
r2- 6x
r3- 2x
r1- 2x
r2- 6x
r3- 2x
r1- 2x
r4- 3x
            
Submit corrections

comments powered by Disqus
↑ Back to top | Unsigned Bass for Phart - Poopsmack. Lyrics for acoustic guitar and electric guitar. Tablatures and chords are parodies/interpretations of the original songs. You may use it for private study, scholarship, research or language learning purposes only