>
 >
Penalty - Losing My Grip

Penalty - Losing My Grip Guitar Tabs

Unsigned - Penalty - Losing My Grip chords, tabs, tablatures, lyrics

Guitar lessons | Add/correct | Request | Top 50 tabs Artists:  A B C D E F G H I J K L M N O P Q R S T U V W X Y Z 0-9

Penalty - Losing My Grip Guitar Tabs – Unsigned

CD, Sheet music, Poster

Do you like Penalty - Losing My Grip? Share with your friends now
Tabs
x=harmonic   normal tuning
~=let ring

Intro
e|------------------------|
B|------------------------|
G|--66----------44--------|
D|--66--66--44--44--4--66-|x4
A|--44--66--44--22--4--66-|
E|------44--22------2--44-|

verse 1 and 2 (part 1)
e|--------------------------------------|
B|--------------------------------------|
G|--------------------------------------|
D|-66666666-------------------4444------|x2
A|-44444444-66666666-44444444-2222-4444-|
E|----------44444444-22222222------2222-|
  {..............P.M...................}

verse 1 and 2 (part 2)
e|--------------------------------------|
B|--------------------------------------|
G|-66666666-------------------4444------|
D|-66666666-66666666-44444444-4444-4444-|x2
A|-44444444-66666666-44444444-2222-4444-|
E|----------44444444-22222222------2222-|

Chorus
e|-------------------------------------|
B|-------------------------------------|
G|-------------------------------------|
D|-66666666-------------------44444444-|x2
A|-44444444-66666666-44444444-22222222-|
E|----------44444444-22222222----------|

soloish thing
e|----------------------------|   |-----|
B|----------------------------|   |-----|
G|----------------------------|   |-----|
D|-77--99--11-11--99--777-777-|x3 |-xxx-|play after soloish thing instead of
A|-77--99--11-11--99--777-777-|   |-xxx-| the last palm muted notes.
E|-55--77--9--9---77--555-555-|   |-xxx-|
                         {P.M.}

Verse 3
e|--------------------------------------|                     order: intro
B|--------------------------------------|                            verse 1 and 2 (part 1)
G|-66666666-------------------4444------|                            verse 1 and 2 (part 2)
D|-66666666-66666666-44444444-4444-4444-|x2                            chorus
A|-44444444-66666666-44444444-2222-4444-|                            intro
E|----------44444444-22222222------2222-|                            verse 1 and 2 (part 1)
                                                                     verse 1 and 2 (part 2)
Verse 4                                                              chorus 
e|--------------------------------------|                            intro 
B|--------------------------------------|                            soloish thing
G|-6~-------------------------4~--------|                            verse 3
D|-6~-------6~-------4~-------4~---4~---|x2                            verse 4
A|-4~-------6~-------4~-------2~---4~---|                            outro 
E|----------4~-------2~------------2~---|

outro
e|-------------------------|
B|-------------------------|
G|-66----------44----------|
D|-66--66--44--44--4--66--6|
A|-44--66--44--22--4--66--4|
E|-----44--22------2--44--4|





Comments


Popular Unsigned tabs & chords
Band - Radley Song Take Some Time Bass Tabs
Plank! - The Real World Bass Tabs
The Death Of Gwen Stacy-Maxgetsinvisible Bass Tabs
The Flying Llamas Bass Tabs
Cuttlefish - Khemistry 1 Tabs
Dirty-Nation - A Lesson In Rights Tabs
Dogfood Tabs
Handicap Stilts- School Spirit Tabs
Jaundiced Eyes - No Rest For The Restles Tabs
Jfd&Jtb - Song 001 Tabs


Song lyrics



↑ Back to top | Tablatures and chords are parodies/interpretations of the original songs. You may use it for private study, scholarship, research or language learning purposes only
© 2014 AZChords.com Contact us | Privacy policy | DMCA | Add/correct tabs | Request tabs | Top 50 tabs