>
 >
Paul Pichon - Pitch Bright Eyes

Paul Pichon - Pitch Bright Eyes Bass Tabs

Unsigned - Paul Pichon - Pitch Bright Eyes chords, tabs, tablatures, lyrics

Guitar lessons | Add/correct | Request | Top 50 tabs Artists:  A B C D E F G H I J K L M N O P Q R S T U V W X Y Z 0-9

Paul Pichon - Pitch Bright Eyes Bass Tabs – Unsigned

CD, Sheet music, Poster

Do you like Paul Pichon - Pitch Bright Eyes? Share with your friends now
Bass Tabs
pitch bright eyes


G-----14----14----14----14-----14-----14-----14-----14|
D---0-----0-----0-----0------0------0------0------0---|
A-0-----0-----0-----0-----15-----15-----15-----15-----|
E-----------------------------------------------------|

G------17-----17-----17-----14-----16-----16-----16-----13-|
D---15-----15-----15-----15-----14-----14-----14-----14----|
A-0------0------0------0------0------0------0------0-------|
E----------------------------------------------------------|

G------11-----11-----11-----14------0------0------11------14-|
D---12-----12-----12-----12------12-----12-----12------12----|
A-0------0------0------0------10-----10-----10------10-------|
E------------------------------------------------------------|

G-------0------0------11------14|-------0------0------11------14--0-----|
D----12-----12-----12------12---|----12-----12-----12------12-----12----|
A-10-----10-----10------10------|-10-----10-----10------10--------10----|
E-------------------------------|------------------------------------0--|end of intro
                                    play slowly

G---11---12-11-----------9---------12------11---12-11--------|
D-9----0-------12-0----0---0----12----12-9----0-------12--0--|
A-------------------10-------10------------------------------|
E------------------------------------------------------------|

G------11---------14-------|
D----0----0----12----12----|
A-10--------10-------------|
E--------------------------| place last two bars twice

G----11-9-11-12-11-9-11-7*--------11-9-11-12-11-9-11-12*--12&19-12&17-12&16-|
D--9-----------------------0-0--9-------------------------------------------|
A---------------------------------------------------------------------------|
E---------------------------------------------------------------------------|

G---11-9-11-12-11-9-11-7*---6---7---11-9-11-12-11-9-11-12*--12&16-12&17-12&19-|
D-9-----------------------4---5---9-------------------------------------------|
A-----------------------------------------------------------------------------|
E-----------------------------------------------------------------------------|

G-----12&19-12&17-12&16-----11&20-11&18-11&16----12&19-12&17-12&16-----|
D-h10----------------------------------------h10-----------------------|
A-----------------------h11----------------------------------------h11-|
E----------------------------------------------------------------------|
place twice fast

G-11&20-11&18-11&16--------------------------|
D--------------------10----10----10----10----|
A-----------------------11----11----11----11-|
E--------------------------------------------|

G-18------18------18------18------20------18------16------15--------|
D----10------10------10------10------10------10------10------10-----|
A-------11------11------11------11------11------11------11------11--|
E-------------------------------------------------------------------|

G-16------15------13------12--------------------------9-11-12-12--|
D----10------10------10------10----------------7-9-10---------10--|
A-------11------11------11------11------8-9-11--------------------|
E----------------------------------9-10---------------------------|

G-12&16-12&17-------12&16-12&17-------11&16-11&18-------|
D-------------10&19-------------10&19-------------12&19-|
A-------------------------------------------------------|2 times
E-------------------------------------------------------|

G-12&16-12&19-------12&16-12&19-------------11&18-11&20-------11&18-11&20---|
D-------------10&19-------------10&19-12&19-------------12&19---------------|
A---------------------------------------------------------------------------|2 times
E---------------------------------------------------------------------------|

G------h16-----------16------16------16------16------18------18------18------18-|
D-<12>-----h14----14------14------14------14------14------14------14------14----|
A--------------16------16------16------16------16------16------16------16-------|
E-------------------------------------------------------------------------------|

G-------16------16------16------16------14------14------14-16-14----------|
D----14------14------14------14------14------14------14----------16-14----|
A-14------14------14------14------14------14------14-------------------16-|
E-------------------------------------------------------------------------|

G-------18------16------14-----16------18------16------14-----16-|
D----16------14------12-----14------16------14------12-----14----|
A-14------12------12------0------14------12------12------0-------|
E----------------------------------------------------------------|

G-------16------16------16------16------18------18------18------18--|
D----14------14------14------14------14------14------14------14-----|
A-16------16------16------16------16------16------16------16--------|
E-------------------------------------------------------------------|

G-------16------16------16------16------14------14------14-16-14-----------|
D----14------14------14------14------14------14------14----------16-14-----|
A-14------14------14------14------14------14------14-------------------16--|
E--------------------------------------------------------------------------|

G-------18------16------14-----16-------18------16------14------14-----16-|
D----16------14------12-----14-------16------14------12------12-----14----|
A-14------12------12------0-------14------12------12------12------0-------|
E-------------------------------------------------------------------------|

G-------16------16------16------16-----16-----16-----16-----16-|
D----14------14------14------14-----14-----14-----14-----14----|
A-16------16------16------16------0------0------0------0-------|2 times
E--------------------------------------------------------------|

G-------16------18------16------14------18------16------14-----16-|
D----14------14------14------14------16------14------12-----14----|
A-16------16------14------14------14------12------12------0-------|
E-----------------------------------------------------------------|

G-------18------16------14-----16------18------16------14-----16-|
D----16------14------12-----14------16------14------12-----14----|
A-14------12------12------0------14------12------12------0-------|
E----------------------------------------------------------------|

G-16*------------------|
D-14*------------------|
A-16*------------------|
E----------------------|

Love 
Paul Pichon





Comments


Popular Unsigned tabs & chords
Black Dawn-Like Im Falling Tabs
Camel Wrist- Camel Song Tabs
Disdained - First Song Tabs
Easily Amused - Why Tabs
Gravel Road - Imaginary Seagul Shadow Tabs
Huchi Can Take It - Maybe I Go Home Tabs
I Miss You Tabs
In Question - Waiting Tabs
Inconcievable - Out Of Fashion Tabs
Kudrna-Loser With A Dream Tabs


Song lyrics



↑ Back to top | Tablatures and chords are parodies/interpretations of the original songs. You may use it for private study, scholarship, research or language learning purposes only
© 2014 AZChords.com Contact us | Privacy policy | DMCA | Add/correct tabs | Request tabs | Top 50 tabs