» » »

Unsigned, Passion Tabs (ver.1)

Artists:  A B C D E F G H I J K L M N O P Q R S T U V W X Y Z # 

Passion Tabs (ver.1)

Unsigned Tabs
 Rating:
4/5 (4 votes)
Passion lessons Tabs too difficult? Try these video lessons and learn fast
1
                Lyrics by Aaron "Masty2k3" Masterson
Guitar by Dean "dk2k3" Kinane and Dermot MacNeill

Intro:
 Guitar 1

|---------------------
|---------------------
|---------------------
|----7---5---3--3-3---
|---7---5---3-3-3-3---
|--5---3---1----1-1---

 Guitar 2

|-------------------------------------------------------
|-------------------------------------------------------
|--7-7p5-----7-7p5-------7-7p5-----------7-7p5----------
|--------77~-------77~/9~-------77~-5-7~-------7^9^7~---
|-------------------------------------------------------
|-------------------------------------------------------

Verse
 Guitar 1
|--------------------------------------
|--------------------------------------
|--------------------------------------
|----7---5---3--3-3----7---5---3-3-3---
|---7---5---3-3-3-3---7---5---3--3-3---
|--5---3---1----1-1--5---3---1---1-1---

|--------------------------------------
|--------------------------------------
|--------------------------------------
|----7---5---3--3-3----7---5----10-----
|---7---5---3-3-3-3---7---5---10--10---
|--5---3---1----1-1--5---3---8---------

 Guitar 2
|--------------------------
|--------------------------
|--------------------------
|-7-7--77--55-5--33-3-33---
|-7-7--77--55-5--33-3-33---
|-5-5--55--33-3--11-1-11--- 
       P      P
Play 3 times then play

|--------------------------
|--------------------------
|--------------------------
|-7-7--77--55-5--10-10-3---
|-7-7--77--55-5--10-10-3---
|-5-5--55--33-3--8--8--1---
            
Submit corrections

comments powered by Disqus
↑ Back to top | Unsigned Tabs for Passion. Lyrics for acoustic guitar and electric guitar. 1 Tablatures and chords are parodies/interpretations of the original songs. You may use it for private study, scholarship, research or language learning purposes only