» » »

Unsigned, Paroxysm - Heavy Tabs (ver.1)

Artists:  A B C D E F G H I J K L M N O P Q R S T U V W X Y Z # 

Paroxysm - Heavy Tabs (ver.1)

Unsigned Tabs
 Rating:
4/5 (4 votes)
Paroxysm - Heavy lessons Tabs too difficult? Try these video lessons and learn fast
                This is a song from my band. It's pretty sweet when played right.
It's simple and you need heavy distortion

X=Mute	/=Slide up	\=Slide Down

=VERSE=

e|-------------------
B|-------------------
G|-------------------	Repeat X8
D|-------------------
A|-2-2--3-2--2-2-1-2-
D|-2-2--3-2--2-2-1-2-
   X X       X X  

=CHORUS=
e|----------------------------------
B|----------------------------------
G|----------------------------------	Repeat X4
D|----------------------------------
A|-2-2-2-2-3-3-3-3-3-0-0-0-0-3-2-0-2
D|-2-2-2-2-3-3-3-3-3-0-0-0-0-3-2-0-2

=BRIDGE=
e|----------------------------
B|----------------------------
G|----------------------------	Repeat X2
D|----------------------------
A|-5-5XX5\3-3XX3\1-1XX1-1-1-XX
D|-5-5XX5\3-3XX3\1-1XX1-1-1-XX

=ORDER=
CHORUS
VERSE
CHORUS
VERSE
BRIDGE
CHORUS
            
Submit corrections

comments powered by Disqus
↑ Back to top | Unsigned Tabs for Paroxysm - Heavy. Lyrics for acoustic guitar and electric guitar. Tablatures and chords are parodies/interpretations of the original songs. You may use it for private study, scholarship, research or language learning purposes only