» » »

Parapalegic Turtles - Switchbladesuicide Tabs (ver.1)

Artists:  A B C D E F G H I J K L M N O P Q R S T U V W X Y Z # 

Parapalegic Turtles - Switchbladesuicide Tabs (ver.1)

Unsigned
Rating:
0/5 (0 votes)

Hard to play? Try these video lessons and learn fast.
                Standard Tuning

Intro: (After Bass Intro)
(Palm Muted)
e|--------------------------------------------------------|
B|--------------------------------------------------------|
G|----------10-10-10-10--5-5-5-5--------------------------|
D|-7-7-7-7--10-10-10-10--5-5-5-5--5-5-5-5--------4x-------|
A|-7-7-7-7--8--8--8--8---3-3-3-3--5-5-5-5-----------------|
E|-5-5-5-5------------------------3-3-3-3-----------------|
        
Verse:  (Both Guitars)
e|--------------------------------------------------------|
B|--------------------------------------------------------|
G|----------10-10-10-10--5-5-5-5--------------------------|
D|-7-7-7-7--10-10-10-10--5-5-5-5--5-5-5-5-----------------|
A|-7-7-7-7--8--8--8--8---3-3-3-3--5-5-5-5-----------------|
E|-5-5-5-5------------------------3-3-3-3-----------------|

e|--------------------------------------------------------|
B|--------------------------------------------------------|
G|----------10-10-10-10--7-7-7-7--------------------------|
D|-7-7-7-7--10-10-10-10—-7-7-7-7--5-5-5-5-----------------|
A|-7-7-7-7--8--8--8--8---5-5-5-5--5-5-5-5-----------------|
E|-5-5-5-5------------------------3-3-3-3-----------------|

Chorus:
(Gtr.1)
e|--------------------------------------------------------|
B|--------------------------------------------------------|
G|----------5---------------------------------------------|
D|-7--------5------------5--------3-----------------------|
A|-7--------3------------5--------3-----------------------|
E|-5---------------------3--------1-----------------------|

(Gtr.2)
e|--------------------------------------------------------|
B|--------------------------------------------------------|
G|----------5XXXX--------5XXXX----------------------------|
D|-7XXXX----5XXXX--------5XXXX------3XXXX-----------------|
A|-7XXXX----3XXXX--------3XXXX------3XXXX-----------------|
E|-5XXXX----------------------------1XXXX-----------------|


This song is only instrumental so far..once we get lyrics it might change the number of times for the stuff.

Song Order:
Intro
Verse 4x
Chorus 2x
Verse 2x
Chorus 2x
Verse 1x
            
Hard to play? Try these video lessons and learn fast. | Correct




comments powered by Disqus
↑ Back to top | Tablatures and chords are parodies/interpretations of the original songs. You may use it for private study, scholarship, research or language learning purposes only