» » »

Paradox - Down Tabs (ver.1)

Artists:  A B C D E F G H I J K L M N O P Q R S T U V W X Y Z # 

Paradox - Down Tabs (ver.1)

Unsigned
Rating:
0/5 (0 votes)

Hard to play? Try these video lessons and learn fast.
                “Down”
By Paradox

Intro (play at the speed of What's My Age Again) (X4)
E|--------------------------------------------------------------------|
B|--------------------------------------------------------------------|
G|-----0-------0-------0-------0--------------------------------------|
D|---0---0---0---0---0---0---0---0------------------------------------|
A|-2---------------0--------------------------------------------------|
E|---------3---------------2------------------------------------------|

Verse (muted)(X4)
E|--------------------------------------------------------------------|
B|--------------------------------------------------------------------|
G|-9-9--5-5-5--7-7-7--------------------------------------------------|
D|-9-9--5-5-5--7-7-7--9-9-9-------------------------------------------|
A|-7-7—-3-3-3--5-5-5--9-9-9-------------------------------------------|
E|--------------------7-7-7-------------------------------------------|


Pre-chorus (X4)
E|--------------------------------------------------------------------|
B|--------------------------------------------------------------------|
G|--------9-9-9---------7-7-7-----------------------------------------|
D|-7-7-7--9-9-9--9-9-9--7-7-7-----------------------------------------|
A|-7-7-7--7-7-7--9-9-9--5-5-5-----------------------------------------|
E|-5-5-5---------7-7-7------------------------------------------------|

Chorus
E|--------------------------------------------------------------------|
B|--------------------------------------------------------------------|
G|--------------------------------------------------------------------|
D|--------------------------------------------------------------------|
A|--------------------------------------------------------------------|
E|--------------------------------------------------------------------|

Intro
Verse
PreChorus
Chorus
Verse
PreChorus
Bass and Drum Solo
Chorus (X2)
            
Hard to play? Try these video lessons and learn fast. | Correct




comments powered by Disqus
↑ Back to top | Tablatures and chords are parodies/interpretations of the original songs. You may use it for private study, scholarship, research or language learning purposes only