» » »

Own Song Tabs (ver.1)

Artists:  A B C D E F G H I J K L M N O P Q R S T U V W X Y Z # 

Own Song Tabs (ver.1)

Unsigned
Rating:
0/5 (0 votes)

Hard to play? Try these video lessons and learn fast.
                E--------------------------------------------------------------------------------
B--------------------------------------------------------------------------------
G-------------------------------------------------------------------------------
D-----------2--- 4--------------------------------------------------------------
A-2--------0----2----------2---------------------------------------------------
E-0---2-3-----------3-2---0---------------------------------------------------

E--------------------------------------------------------------------------------
B--------------------------------------------------------------------------------
G--------------------------------------------------------------------------------
D-----------2--- 4-4---4-4-----------------------------------------------------
A-2--------0----2-2---2-2-----------------------------------------------------
E-0---2-3-----------------------3---2------------------------------------------
            
Hard to play? Try these video lessons and learn fast. | Correct




comments powered by Disqus
↑ Back to top | Tablatures and chords are parodies/interpretations of the original songs. You may use it for private study, scholarship, research or language learning purposes only