>
 >
Overshadowed Feat. Sikotik - Suicide

Overshadowed Feat. Sikotik - Suicide Guitar Tabs

Unsigned - Overshadowed Feat. Sikotik - Suicide chords, tabs, tablatures, lyrics

Guitar lessons | Add/correct | Request | Top 50 tabs Artists:  A B C D E F G H I J K L M N O P Q R S T U V W X Y Z 0-9

Overshadowed Feat. Sikotik - Suicide Guitar Tabs – Unsigned

CD, Sheet music, Poster

Do you like Overshadowed Feat. Sikotik - Suicide? Share with your friends now
Tabs
Black Kite feat. Sikotik
=       Suicide        =
Tuning: drop-d; D-A-D-G-B-e

intro

|---6p5------6p5------6p5-----6p5------6p5------6p5-----|
|---------8--------8----------------8--------8----------|
|-------7--------7--------7-------6--------6--------6---|
|-------------------------------------------------------|
|-------------------------------------------------------|
|-------------------------------------------------------|

|---6p5------6p5------6p5-----6p5------6p5------6p5-----|
|---------8--------8----------------8--------8----------|
|-------5--------5--------5-------6--------6--------6---|
|-------------------------------------------------------|
|-------------------------------------------------------|
|-------------------------------------------------------|

|---6p5---8--6p5---8--6p5-----6p5---8--6p5---8--6p5-----|
|-------------------------------------------------------|
|-------7--------7--------7-------6--------6--------6---|
|-------------------------------------------------------|
|-------------------------------------------------------|
|-------------------------------------------------------|

|---6p5---8--6p5---8--6p5-----6p5---8--6p5---8--6p5-----|
|-------------------------------------------------------|
|-------5--------5--------5-------6--------6--------6---|
|-------------------------------------------------------|
|-------------------------------------------------------|
|-------------------------------------------------------|

|---6p5------6p5------6p5-----6p5------6p5------6p5-----|
|---------8--------8----------------8--------8----------|
|-------7--------7--------7-------6--------6--------6---|
|-------------------------------------------------------|
|-------------------------------------------------------|
|-------------------------------------------------------|

|---6p5------6p5-----5-6-11--10--6--------------|
|---------8--------8----------------8--10--11---|
|-------5--------5------------------------------|
|-----------------------------------------------|
|-----------------------------------------------|
|-----------------------------------------------|


pre-verse

|----------------------------------------------------------|
|----------------------------------------------------------|
|-----------------------5---7----------------------5-------|
|---------------------7---8----------------------7---8-7---|
|---5-5-5-5--5-5-5-5-----------5-5-5-5--5-5-5-5------------|
|---5-5-5-5--5-5-5-5-----------5-5-5-5--5-5-5-5------------|

verse

|---------------------------------------------------|
|---------------------------------------------------|
|---------------------------------------------------|
|---------------------------------------------------| x3
|---5-5-5-5--5-5-5-5----6-6-6-6--3-3-3-3--5h6p5h6---|
|---5-5-5-5--5-5-5-5----5-5-5-5--5-5-5-5--5->->->---|

|---------------------------------------------------|
|---------------------------------------------------|
|---------------------------------------------------|
|---------------------------------------------------| x1
|---5-5-5-5--5-5-5-5----6-6-6-6--8-8-8-8--9-9-9-9---|
|---5-5-5-5--5-5-5-5----5-5-5-5--5-5-5-5--5-5-5-5---|


bridge

|------------------------------------------------------------------|
|------------------------------------------------------------------|
|------------------------------------------------------------------|
|------------------------------------------------------------------|
|-------5-----5-----5-----5-----5------6-----6-----6-----6-----6---|
|---5p8---5p8---5p8---5p8---5p8----5p8---5p8---5p8---5p8---5p8-----|

|------------------------------------------------------------------|
|------------------------------------------------------------------|
|------------------------------------------------------------------|
|------------------------------------------------------------------|
|-------7-----7-----7-----7-----7------6-----6-----6-----6-----6---|
|---5p8---5p8---5p8---5p8---5p8----5p8---5p8---5p8---5p8---5p8-----|

|------------------------------------------------------------------|
|------------------------------------------------------------------|
|------------------------------------------------------------------|
|------------------------------------------------------------------|
|-------5-----5-----5-----5-----5------6-----6-----6-----6-----6---|
|---5p8---5p8---5p8---5p8---5p8----5p8---5p8---5p8---5p8---5p8-----|

|-----------------------------------------------------------------|
|---------------------------------------------------7*h8*---------|
|---------------------------------------------------------7*-7*---|
|-----------------------------------------------------------------|
|-------7-----7-----7-----7-----7------8-----8--------------------|
|---5p8---5p8---5p8---5p8---5p8----5p8---5p8---5p8----------------|

[note: the reference to a natural harmonic at the 8th fret above is optional. On my guitar I can get this by doing a 7th fret natural harmonic and then hammering onto the 8th fret in a downwards/diagonal towards the 8th fret movement. It provides a sort of "two toned" sound; the 8th fret note and its harmonic ringing over it.]


chorus

|-------------------------------------------|
|-------------------------------------------|
|---------------------------3-2-2-2-3-2-3---|
|---5-555-8-7-7-7-8-0-1-111-3-3-3-3-3-3-3---| x3
|---5-555-5-5-5-5-5-0-1-111-1-3-3-3-3-3-3---|
|---5-555-5-5-5-5-5-0-1-111---3-3-3-3-3-3---|

|-------------------------------------------|
|-------------------------------------------|
|---------------------------3-2-2-2-3-------|
|---5-555-8-7-7-7-8-0-1-111-3-3-3-3-3-3-----| x1
|---5-555-5-5-5-5-5-0-1-111-1-3-3-3-3-3-----|
|---5-555-5-5-5-5-5-0-1-111---3-3-3-3-3-----|


interlude

|--------------------------------------------|
|--------------------------------------------|
|--------------------------------------------|
|---5-5555-5--5-5-5-55--5-5555-5--5-5-3-33---|
|---1-1111-1--1-1-1-11--3-3333-3--3-3-3-33---|
|---1-1111-1--1-1-1-11--3-3333-3--3-3-3-33---|

|-----------------------------------------------|
|-----------------------------------------------|
|-----------------------------------------------|
|---8-8888-7--7-7-8-7-8---8-8888-7--7-7-8-7-8---|
|---5-5555-5--5-5-5-5-5---6-6666-6--6-6-6-6-6---|
|---5-5555-5--5-5-5-5-5---5-5555-5--5-5-5-5-5---|

|--------------------------------------------|
|--------------------------------------------|
|--------------------------------------------|
|---5-5555-5--5-5-5-55--5-5555-5--5-5-3-33---|
|---1-1111-1--1-1-1-11--3-3333-3--3-3-3-33---|
|---1-1111-1--1-1-1-11--3-3333-3--3-3-3-33---|

|-----------------------------------------------|
|-----------------------------------------------|
|-----------------------------------------------|
|---8-8888-7--7-7-8-7-8-------------------------|
|---5-5555-5--5-5-5-5-5---6-66666--8-8-8-9-99---|
|---5-5555-5--5-5-5-5-5---5-55555--5-5-5-5-55---|


outro

|--------------------------------------------|
|--------------------------------------------|
|--------------------------------------------|
|---5-5555-5--5-5-5-55--5-5555-5--5-5-3-33---|
|---1-1111-1--1-1-1-11--3-3333-3--3-3-3-33---|
|---1-1111-1--1-1-1-11--3-3333-3--3-3-3-33---|

|-----------------------------------------------|
|-----------------------------------------------|
|-----------------------------------------------|
|---8-8888-7--7-7-8-7-8---8-8888-7--7-7-8-7-8---|
|---5-5555-5--5-5-5-5-5---6-6666-6--6-6-6-6-6---|
|---5-5555-5--5-5-5-5-5---5-5555-5--5-5-5-5-5---|

|--------------------------------------------|
|--------------------------------------------|
|--------------------------------------------|
|---5-5555-5--5-5-5-55--5-5555-5--5-5-3-33---|
|---1-1111-1--1-1-1-11--3-3333-3--3-3-3-33---|
|---1-1111-1--1-1-1-11--3-3333-3--3-3-3-33---|

|-------------------------------------------------------|
|---------------------------------------------8---8-10--|
|---------------------------------------------8---8-10--|
|---8-8888-7--7-7-8-7-8---8-8888-7--7-7-8-7-8-8---8-10--|
|---5-5555-5--5-5-5-5-5---6-6666-6--6-6-6-6-6-6---6--8--|
|---5-5555-5--5-5-5-5-5---5-5555-5--5-5-5-5-5-5---5--7--|

|---6p5------6p5------6p5-----6p5------6p5------6p5-----|
|---------8--------8----------------8--------8----------|
|-------7--------7--------7-------6--------6--------6---|
|-------------------------------------------------------|
|-------------------------------------------------------|
|-------------------------------------------------------|

|---6p5------6p5------6p5-----6p5------6p5------6-5-8-6-5-6---6-5-6---|
|---------8--------8----------------8--------8--------------8---------|
|-------5--------5--------5-------6--------6--------------------------|
|---------------------------------------------------------------------|
|---------------------------------------------------------------------|
|---------------------------------------------------------------------|

|-----6-5-6---6-5-6---6-5-6---6-5-6---6-5-6---6-5-6---6-5-6---6-5-6---|
|---------------------------------------------------------------------|
|---8-------7-------5-------------------------------------------------|
|---------------------------8-------7-------5-------------------------|
|---------------------------------------------------8-------6---------|
|---------------------------------------------------------------------|

|-----6-5-6---6-5-6-8-6-5-6------|
|--------------------------------|
|--------------------------------|
|---------------------------5\---|
|---5-------3---------------5\---|
|---------------------------5\---|


song flow

intro
verse 1
bridge
chorus
verse 2
bridge
chorus
interlude
verse 3
bridge
chorus
outro
 
Guitar 2


chorus/interlude

|---3---5---6---5---3---5---6---5---3---5---6---5---3---5---6---5-----|
|-----3---3---3---3---3---3---3---3---3---3---3---3---3---3---3---3---|
|---------------------------------------------------------------------|
|---------------------------------------------------------------------|
|---------------------------------------------------------------------|
|---------------------------------------------------------------------|
repeats


verse           
                |                   |
|---------------3---5---6---5-------3---5---6---5-----|
|-----------------3---3---3---3-------3---3---3---3---|
|-----------------------------------------------------| x4
|-----------------------------------------------------|
|-----------------------------------------------------|
|-----------------------------------------------------|
       
|---------------------------------------------------|
|---------------------------------------------------|
|---------------------------------------------------|guitar1))
|---------------------------------------------------|
|---5-5-5-5--5-5-5-5----6-6-6-6--3-3-3-3--5h6p5h6---|
|---5-5-5-5--5-5-5-5----5-5-5-5--5-5-5-5--5->->->---|
                |                   |


outro

|-----------------------------------------|
|---8---10---11---13---15->->->->->->->---|
|-----------------------------------------|
|-----------------------------------------|
|-----------------------------------------|
|-----------------------------------------|





Comments


Popular Unsigned tabs & chords
Aaron Doyle - The Hate Song Bass Tabs
El Diablo - Untitled Bass Tabs
The Flying Llamas Bass Tabs
The Whipping Boy Bass Tabs
Acf - Glory Me. Tabs
Am I Different Tabs
Esaul Xero - Demo Tabs
Every Day Heroes - Song #1 Tabs
F.A.T.H - F.A.T.H Tabs
Gba - Over And Over Tabs


Song lyrics



↑ Back to top | Tablatures and chords are parodies/interpretations of the original songs. You may use it for private study, scholarship, research or language learning purposes only
© 2014 AZChords.com Contact us | Privacy policy | DMCA | Add/correct tabs | Request tabs | Top 50 tabs