» » »

Unsigned, Outlasting Bereavement - Unable To Stand Tabs (ver.1)

Artists:  A B C D E F G H I J K L M N O P Q R S T U V W X Y Z # 

Outlasting Bereavement - Unable To Stand Tabs (ver.1)

Unsigned Tabs
 Rating:
4/5 (4 votes)
Outlasting Bereavement - Unable To Stand lessons Tabs too difficult? Try these video lessons and learn fast
                (intro) 2x 
e---2-22-2-2-222-0-2-0-2-0--3-3-2-0----------2-22-2-2-222-0-2-0-2-0--3-3-2-0-------
B-----------------------------------3-1-0------------------------------------3-1-0--
e-3-3-2-0--------3-3-2-0
B---------3-1-0---------

e------------------------------3-3-2-0--------------
B-3-1-0--3-1-0--3-1-0--3-1-0-----------3-1-0------
G--------------------------------------------234-

(chorus ) 
D---5x--5--7x--7--9x--9---]\
A---5x--5--7x--7--9x--9---]= one time
E---3x--3--5x--5--7x--7---]/

6x
D--4--4--7--7--9~--7--7--9--9--4----
A--4--4--7--7--9~--7--7--9--9--4----
E--2--2--5--5--7~--5--5--7--7--2----
            
Submit corrections

comments powered by Disqus
↑ Back to top | Unsigned Tabs for Outlasting Bereavement - Unable To Stand. Lyrics for acoustic guitar and electric guitar. Tablatures and chords are parodies/interpretations of the original songs. You may use it for private study, scholarship, research or language learning purposes only